  0
SECTION
  2
HEADER
  9
$ACADVER
  1
AC1009
  9
$INSBASE
 10
0.0
 20
0.0
 30
0.0
  9
$EXTMIN
 10
-0.0184324515350909
 20
-0.0544508944935842
 30
-0.000000000000013
  9
$EXTMAX
 10
297.00589172750762
 20
1120.0510468060211
 30
0.0000000000000023
  9
$LIMMIN
 10
0.0
 20
0.0
  9
$LIMMAX
 10
297.0
 20
420.0
  9
$ORTHOMODE
 70
     0
  9
$REGENMODE
 70
     1
  9
$FILLMODE
 70
     1
  9
$QTEXTMODE
 70
     0
  9
$MIRRTEXT
 70
     1
  9
$DRAGMODE
 70
     2
  9
$LTSCALE
 40
1.0
  9
$OSMODE
 70
     1
  9
$ATTMODE
 70
     1
  9
$TEXTSIZE
 40
4.0
  9
$TRACEWID
 40
1.0
  9
$TEXTSTYLE
  7
STANDARD
  9
$CLAYER
  8
0
  9
$CELTYPE
  6
BYLAYER
  9
$CECOLOR
 62
   256
  9
$DIMSCALE
 40
1.0
  9
$DIMASZ
 40
2.5
  9
$DIMEXO
 40
0.625
  9
$DIMDLI
 40
3.75
  9
$DIMRND
 40
0.0
  9
$DIMDLE
 40
0.0
  9
$DIMEXE
 40
1.25
  9
$DIMTP
 40
0.0
  9
$DIMTM
 40
0.0
  9
$DIMTXT
 40
2.5
  9
$DIMCEN
 40
2.5
  9
$DIMTSZ
 40
0.0
  9
$DIMTOL
 70
     0
  9
$DIMLIM
 70
     0
  9
$DIMTIH
 70
     0
  9
$DIMTOH
 70
     0
  9
$DIMSE1
 70
     0
  9
$DIMSE2
 70
     0
  9
$DIMTAD
 70
     1
  9
$DIMZIN
 70
     0
  9
$DIMBLK
  1

  9
$DIMASO
 70
     1
  9
$DIMSHO
 70
     1
  9
$DIMPOST
  1

  9
$DIMAPOST
  1

  9
$DIMALT
 70
     0
  9
$DIMALTD
 70
     3
  9
$DIMALTF
 40
0.03937007874016
  9
$DIMLFAC
 40
1.0
  9
$DIMTOFL
 70
     1
  9
$DIMTVP
 40
0.0
  9
$DIMTIX
 70
     0
  9
$DIMSOXD
 70
     0
  9
$DIMSAH
 70
     0
  9
$DIMBLK1
  1

  9
$DIMBLK2
  1

  9
$DIMSTYLE
  2
ISO-25
  9
$DIMCLRD
 70
     0
  9
$DIMCLRE
 70
     0
  9
$DIMCLRT
 70
     0
  9
$DIMTFAC
 40
1.0
  9
$DIMGAP
 40
0.625
  9
$LUNITS
 70
     2
  9
$LUPREC
 70
     4
  9
$SKETCHINC
 40
1.0
  9
$FILLETRAD
 40
0.0
  9
$AUNITS
 70
     0
  9
$AUPREC
 70
     0
  9
$MENU
  1
.
  9
$ELEVATION
 40
0.0
  9
$PELEVATION
 40
0.0
  9
$THICKNESS
 40
0.0
  9
$LIMCHECK
 70
     0
  9
$BLIPMODE
 70
     0
  9
$CHAMFERA
 40
0.0
  9
$CHAMFERB
 40
0.0
  9
$SKPOLY
 70
     0
  9
$TDCREATE
 40
2452194.4037277768
  9
$TDUPDATE
 40
2452306.4238671288
  9
$TDINDWG
 40
1.7103942130000001
  9
$TDUSRTIMER
 40
1.7103928240999999
  9
$USRTIMER
 70
     1
  9
$ANGBASE
 50
0.0
  9
$ANGDIR
 70
     0
  9
$PDMODE
 70
     3
  9
$PDSIZE
 40
0.0
  9
$PLINEWID
 40
0.0
  9
$COORDS
 70
     0
  9
$SPLFRAME
 70
     0
  9
$SPLINETYPE
 70
     6
  9
$SPLINESEGS
 70
     8
  9
$ATTDIA
 70
     0
  9
$ATTREQ
 70
     1
  9
$HANDLING
 70
-16383
  9
$HANDSEED
  5
837A
  9
$SURFTAB1
 70
     6
  9
$SURFTAB2
 70
     6
  9
$SURFTYPE
 70
     6
  9
$SURFU
 70
     6
  9
$SURFV
 70
     6
  9
$UCSNAME
  2

  9
$UCSORG
 10
0.0
 20
0.0
 30
0.0
  9
$UCSXDIR
 10
1.0
 20
0.0
 30
0.0
  9
$UCSYDIR
 10
0.0
 20
1.0
 30
0.0
  9
$PUCSNAME
  2

  9
$PUCSORG
 10
0.0
 20
0.0
 30
0.0
  9
$PUCSXDIR
 10
1.0
 20
0.0
 30
0.0
  9
$PUCSYDIR
 10
0.0
 20
1.0
 30
0.0
  9
$USERI1
 70
     1
  9
$USERI2
 70
     0
  9
$USERI3
 70
     0
  9
$USERI4
 70
     0
  9
$USERI5
 70
     0
  9
$USERR1
 40
1.0
  9
$USERR2
 40
1.0
  9
$USERR3
 40
0.0
  9
$USERR4
 40
0.0
  9
$USERR5
 40
0.0
  9
$WORLDVIEW
 70
     1
  9
$SHADEDGE
 70
     3
  9
$SHADEDIF
 70
    70
  9
$TILEMODE
 70
     1
  9
$MAXACTVP
 70
    48
  9
$PLIMCHECK
 70
     0
  9
$PEXTMIN
 10
0.1778145603150278
 20
-0.3103504260435557
 30
0.0
  9
$PEXTMAX
 10
198.13268467571959
 20
283.17468584801992
 30
0.0
  9
$PLIMMIN
 10
-5.8737497329711923
 20
-5.873747825622555
  9
$PLIMMAX
 10
204.18424892425529
 20
291.05224704742432
  9
$UNITMODE
 70
     0
  9
$VISRETAIN
 70
     1
  9
$PLINEGEN
 70
     0
  9
$PSLTSCALE
 70
     1
  0
ENDSEC
  0
SECTION
  2
TABLES
  0
TABLE
  2
VPORT
 70
     3
  0
VPORT
  2
*ACTIVE
 70
     0
 10
0.0
 20
0.0
 11
1.0
 21
1.0
 12
148.49372963798629
 22
559.99829795576397
 13
0.0
 23
0.0
 14
10.0
 24
10.0
 15
10.0
 25
10.0
 16
0.0
 26
0.0
 36
1.0
 17
0.0
 27
0.0
 37
0.0
 40
1132.482354028697
 41
1.2952029520295201
 42
50.0
 43
0.0
 44
0.0
 50
0.0
 51
0.0
 71
     0
 72
   100
 73
     1
 74
     3
 75
     0
 76
     0
 77
     0
 78
     0
  0
ENDTAB
  0
TABLE
  2
LTYPE
 70
     1
  0
LTYPE
  2
CONTINUOUS
 70
     0
  3
Solid line
 72
    65
 73
     0
 40
0.0
  0
ENDTAB
  0
TABLE
  2
LAYER
 70
     1
  0
LAYER
  2
0
 70
     0
 62
     7
  6
CONTINUOUS
  0
ENDTAB
  0
TABLE
  2
STYLE
 70
     2
  0
STYLE
  2
STANDARD
 70
     0
 40
0.0
 41
1.0
 50
0.0
 71
     0
 42
4.0
  3
txt.shx
  4
bigfont.shx
  0
STYLE
  2
STANDATDT
 70
     4
 40
0.0
 41
1.0
 50
0.0
 71
     0
 42
4.0
  3
txt.shx
  4
bigfont.shx
  0
ENDTAB
  0
TABLE
  2
VIEW
 70
     0
  0
ENDTAB
  0
TABLE
  2
UCS
 70
     0
  0
ENDTAB
  0
TABLE
  2
APPID
 70
     1
  0
APPID
  2
ACAD
 70
     0
  0
ENDTAB
  0
TABLE
  2
DIMSTYLE
 70
     2
  0
DIMSTYLE
  2
ISO-25
 70
     0
  3

  4

  5

  6

  7

 40
1.0
 41
2.5
 42
0.625
 43
3.75
 44
1.25
 45
0.0
 46
0.0
 47
0.0
 48
0.0
140
2.5
141
2.5
142
0.0
143
0.03937007874016
144
1.0
145
0.0
146
1.0
147
0.625
 71
     0
 72
     0
 73
     0
 74
     0
 75
     0
 76
     0
 77
     1
 78
     8
170
     0
171
     3
172
     1
173
     0
174
     0
175
     0
176
     0
177
     0
178
     0
  0
DIMSTYLE
  2
STANDARD
 70
     0
  3

  4

  5

  6

  7

 40
1.0
 41
0.18
 42
0.0625
 43
0.38
 44
0.18
 45
0.0
 46
0.0
 47
0.0
 48
0.0
140
0.18
141
0.09
142
0.0
143
25.399999999999999
144
1.0
145
0.0
146
1.0
147
0.09
 71
     0
 72
     0
 73
     1
 74
     1
 75
     0
 76
     0
 77
     0
 78
     0
170
     0
171
     2
172
     0
173
     0
174
     0
175
     0
176
     0
177
     0
178
     0
  0
ENDTAB
  0
ENDSEC
  0
SECTION
  2
BLOCKS
  0
BLOCK
  8
0
  2
$MODEL_SPACE
 70
     0
 10
0.0
 20
0.0
 30
0.0
  3
$MODEL_SPACE
  1

  0
ENDBLK
  5
78D4
  8
0
  0
BLOCK
 67
     1
  8
0
  2
$PAPER_SPACE
 70
     0
 10
0.0
 20
0.0
 30
0.0
  3
$PAPER_SPACE
  1

  0
ENDBLK
  5
78D0
 67
     1
  8
0
  0
ENDSEC
  0
SECTION
  2
ENTITIES
  0
LINE
  5
78E2
  8
0
 10
20.0
 20
1028.822195106696
 30
0.0
 11
177.0
 21
1028.822195106696
 31
0.0
  0
TEXT
  5
78E3
  8
0
 10
119.40000082807239
 20
1017.322195407037
 30
0.0
 40
3.0
  1
記　　　事
 72
     4
 11
128.00000082807239
 21
1018.822195407037
 31
0.0
  0
TEXT
  5
78E4
  8
0
 10
54.956175280590472
 20
1017.8221951066949
 30
0.0
 40
3.0
  1
地質区分
 72
     4
 11
61.756175280590469
 21
1019.3221951066949
 31
0.0
  0
TEXT
  5
78E5
  8
0
 10
15.0
 20
1029.5398942390141
 30
0.0
 40
3.0
  1
標　　尺
  7
STANDATDT
 72
     4
 11
15.0
 21
1022.639894239014
 31
0.0
  0
TEXT
  5
78E6
  8
0
 10
25.0
 20
1025.922195106695
 30
0.0
 40
3.0
  1
標　高
  7
STANDATDT
 72
     4
 11
25.0
 21
1020.822195106696
 31
0.0
  0
TEXT
  5
78E7
  8
0
 10
45.0
 20
1026.2221951066949
 30
0.0
 40
3.0
  1
柱 状 図
  7
STANDATDT
 72
     4
 11
45.0
 21
1019.3221951066949
 31
0.0
  0
TEXT
  5
78E8
  8
0
 10
35.0
 20
1025.922195106695
 30
0.0
 40
3.0
  1
深　度
  7
STANDATDT
 72
     4
 11
35.0
 21
1020.822195106696
 31
0.0
  0
LINE
  5
78E9
  8
0
 10
30.0
 20
1009.8221951066949
 30
0.0
 11
30.0
 21
1028.822195106696
 31
0.0
  0
LINE
  5
78EA
  8
0
 10
40.0
 20
1009.8221951066949
 30
0.0
 11
40.0
 21
1028.822195106696
 31
0.0
  0
LINE
  5
78EB
  8
0
 10
20.0
 20
1009.8221951066949
 30
0.0
 11
20.0
 21
1034.822195106696
 31
0.0
  0
LINE
  5
78EC
  8
0
 10
10.0
 20
908.82219510669665
 30
0.0
 11
13.0
 21
908.82219510669665
 31
0.0
  0
LINE
  5
78ED
  8
0
 10
10.0
 20
912.82219510669654
 30
0.0
 11
11.0
 21
912.82219510669654
 31
0.0
  0
LINE
  5
78EE
  8
0
 10
10.0
 20
911.82219510669654
 30
0.0
 11
11.0
 21
911.82219510669654
 31
0.0
  0
LINE
  5
78EF
  8
0
 10
10.0
 20
910.82219510669654
 30
0.0
 11
11.0
 21
910.82219510669654
 31
0.0
  0
LINE
  5
78F0
  8
0
 10
10.0
 20
909.82219510669665
 30
0.0
 11
11.0
 21
909.82219510669665
 31
0.0
  0
LINE
  5
78F1
  8
0
 10
10.0
 20
918.82219510669665
 30
0.0
 11
13.0
 21
918.82219510669665
 31
0.0
  0
LINE
  5
78F2
  8
0
 10
10.0
 20
913.82219510669654
 30
0.0
 11
12.0
 21
913.82219510669654
 31
0.0
  0
LINE
  5
78F3
  8
0
 10
10.0
 20
920.82219510669654
 30
0.0
 11
11.0
 21
920.82219510669654
 31
0.0
  0
LINE
  5
78F4
  8
0
 10
10.0
 20
919.82219510669654
 30
0.0
 11
11.0
 21
919.82219510669654
 31
0.0
  0
LINE
  5
78F5
  8
0
 10
10.0
 20
914.82219510669654
 30
0.0
 11
11.0
 21
914.82219510669654
 31
0.0
  0
LINE
  5
78F6
  8
0
 10
10.0
 20
915.82219510669643
 30
0.0
 11
11.0
 21
915.82219510669643
 31
0.0
  0
LINE
  5
78F7
  8
0
 10
10.0
 20
916.82219510669665
 30
0.0
 11
11.0
 21
916.82219510669665
 31
0.0
  0
LINE
  5
78F8
  8
0
 10
10.0
 20
917.82219510669665
 30
0.0
 11
11.0
 21
917.82219510669665
 31
0.0
  0
LINE
  5
78F9
  8
0
 10
10.0
 20
928.82219510669654
 30
0.0
 11
13.0
 21
928.82219510669654
 31
0.0
  0
LINE
  5
78FA
  8
0
 10
10.0
 20
923.82219510669643
 30
0.0
 11
12.0
 21
923.82219510669643
 31
0.0
  0
LINE
  5
78FB
  8
0
 10
10.0
 20
929.82219510669654
 30
0.0
 11
11.0
 21
929.82219510669654
 31
0.0
  0
LINE
  5
78FC
  8
0
 10
10.0
 20
922.82219510669654
 30
0.0
 11
11.0
 21
922.82219510669654
 31
0.0
  0
LINE
  5
78FD
  8
0
 10
10.0
 20
921.82219510669654
 30
0.0
 11
11.0
 21
921.82219510669654
 31
0.0
  0
LINE
  5
78FE
  8
0
 10
10.0
 20
924.82219510669643
 30
0.0
 11
11.0
 21
924.82219510669643
 31
0.0
  0
LINE
  5
78FF
  8
0
 10
10.0
 20
925.82219510669665
 30
0.0
 11
11.0
 21
925.82219510669665
 31
0.0
  0
LINE
  5
7900
  8
0
 10
10.0
 20
926.82219510669665
 30
0.0
 11
11.0
 21
926.82219510669665
 31
0.0
  0
LINE
  5
7901
  8
0
 10
10.0
 20
927.82219510669654
 30
0.0
 11
11.0
 21
927.82219510669654
 31
0.0
  0
LINE
  5
7902
  8
0
 10
10.0
 20
933.82219510669665
 30
0.0
 11
12.0
 21
933.82219510669665
 31
0.0
  0
LINE
  5
7903
  8
0
 10
10.0
 20
932.82219510669643
 30
0.0
 11
11.0
 21
932.82219510669643
 31
0.0
  0
LINE
  5
7904
  8
0
 10
10.0
 20
934.82219510669665
 30
0.0
 11
11.0
 21
934.82219510669665
 31
0.0
  0
LINE
  5
7905
  8
0
 10
10.0
 20
935.82219510669654
 30
0.0
 11
11.0
 21
935.82219510669654
 31
0.0
  0
LINE
  5
7906
  8
0
 10
10.0
 20
936.82219510669654
 30
0.0
 11
11.0
 21
936.82219510669654
 31
0.0
  0
LINE
  5
7907
  8
0
 10
10.0
 20
937.82219510669654
 30
0.0
 11
11.0
 21
937.82219510669654
 31
0.0
  0
LINE
  5
7908
  8
0
 10
10.0
 20
931.82219510669654
 30
0.0
 11
11.0
 21
931.82219510669654
 31
0.0
  0
LINE
  5
7909
  8
0
 10
10.0
 20
930.82219510669654
 30
0.0
 11
11.0
 21
930.82219510669654
 31
0.0
  0
LINE
  5
790A
  8
0
 10
10.0
 20
938.82219510669654
 30
0.0
 11
13.0
 21
938.82219510669654
 31
0.0
  0
LINE
  5
790B
  8
0
 10
10.0
 20
943.82219510669665
 30
0.0
 11
12.0
 21
943.82219510669665
 31
0.0
  0
LINE
  5
790C
  8
0
 10
10.0
 20
944.82219510669654
 30
0.0
 11
11.0
 21
944.82219510669654
 31
0.0
  0
LINE
  5
790D
  8
0
 10
10.0
 20
945.82219510669654
 30
0.0
 11
11.0
 21
945.82219510669654
 31
0.0
  0
LINE
  5
790E
  8
0
 10
10.0
 20
942.82219510669665
 30
0.0
 11
11.0
 21
942.82219510669665
 31
0.0
  0
LINE
  5
790F
  8
0
 10
10.0
 20
941.82219510669665
 30
0.0
 11
11.0
 21
941.82219510669665
 31
0.0
  0
LINE
  5
7910
  8
0
 10
10.0
 20
940.82219510669643
 30
0.0
 11
11.0
 21
940.82219510669643
 31
0.0
  0
LINE
  5
7911
  8
0
 10
10.0
 20
939.82219510669654
 30
0.0
 11
11.0
 21
939.82219510669654
 31
0.0
  0
LINE
  5
7912
  8
0
 10
10.0
 20
948.82219510669643
 30
0.0
 11
13.0
 21
948.82219510669643
 31
0.0
  0
LINE
  5
7913
  8
0
 10
10.0
 20
953.82219510669654
 30
0.0
 11
12.0
 21
953.82219510669654
 31
0.0
  0
LINE
  5
7914
  8
0
 10
10.0
 20
952.82219510669654
 30
0.0
 11
11.0
 21
952.82219510669654
 31
0.0
  0
LINE
  5
7915
  8
0
 10
10.0
 20
951.82219510669665
 30
0.0
 11
11.0
 21
951.82219510669665
 31
0.0
  0
LINE
  5
7916
  8
0
 10
10.0
 20
950.82219510669665
 30
0.0
 11
11.0
 21
950.82219510669665
 31
0.0
  0
LINE
  5
7917
  8
0
 10
10.0
 20
949.82219510669643
 30
0.0
 11
11.0
 21
949.82219510669643
 31
0.0
  0
LINE
  5
7918
  8
0
 10
10.0
 20
946.82219510669654
 30
0.0
 11
11.0
 21
946.82219510669654
 31
0.0
  0
LINE
  5
7919
  8
0
 10
10.0
 20
947.82219510669654
 30
0.0
 11
11.0
 21
947.82219510669654
 31
0.0
  0
TEXT
  5
791A
  8
0
 10
32.25
 20
1011.655528440028
 30
0.0
 40
2.5
  1
(ｍ)
 72
     1
 11
35.0
 21
1011.3221951066949
 31
0.0
 73
     1
  0
LINE
  5
791B
  8
0
 10
10.0
 20
958.82219510669665
 30
0.0
 11
13.0
 21
958.82219510669665
 31
0.0
  0
LINE
  5
791C
  8
0
 10
10.0
 20
961.82219510669654
 30
0.0
 11
11.0
 21
961.82219510669654
 31
0.0
  0
LINE
  5
791D
  8
0
 10
10.0
 20
960.82219510669654
 30
0.0
 11
11.0
 21
960.82219510669654
 31
0.0
  0
LINE
  5
791E
  8
0
 10
10.0
 20
959.82219510669665
 30
0.0
 11
11.0
 21
959.82219510669665
 31
0.0
  0
LINE
  5
791F
  8
0
 10
10.0
 20
954.82219510669654
 30
0.0
 11
11.0
 21
954.82219510669654
 31
0.0
  0
LINE
  5
7920
  8
0
 10
10.0
 20
955.82219510669654
 30
0.0
 11
11.0
 21
955.82219510669654
 31
0.0
  0
LINE
  5
7921
  8
0
 10
10.0
 20
956.82219510669654
 30
0.0
 11
11.0
 21
956.82219510669654
 31
0.0
  0
LINE
  5
7922
  8
0
 10
10.0
 20
957.82219510669643
 30
0.0
 11
11.0
 21
957.82219510669643
 31
0.0
  0
LINE
  5
7923
  8
0
 10
10.0
 20
968.82219510669665
 30
0.0
 11
13.0
 21
968.82219510669665
 31
0.0
  0
LINE
  5
7924
  8
0
 10
10.0
 20
963.82219510669654
 30
0.0
 11
12.0
 21
963.82219510669654
 31
0.0
  0
LINE
  5
7925
  8
0
 10
10.0
 20
970.82219510669654
 30
0.0
 11
11.0
 21
970.82219510669654
 31
0.0
  0
LINE
  5
7926
  8
0
 10
10.0
 20
969.82219510669654
 30
0.0
 11
11.0
 21
969.82219510669654
 31
0.0
  0
LINE
  5
7927
  8
0
 10
10.0
 20
964.82219510669654
 30
0.0
 11
11.0
 21
964.82219510669654
 31
0.0
  0
LINE
  5
7928
  8
0
 10
10.0
 20
965.82219510669643
 30
0.0
 11
11.0
 21
965.82219510669643
 31
0.0
  0
LINE
  5
7929
  8
0
 10
10.0
 20
966.82219510669665
 30
0.0
 11
11.0
 21
966.82219510669665
 31
0.0
  0
LINE
  5
792A
  8
0
 10
10.0
 20
967.82219510669665
 30
0.0
 11
11.0
 21
967.82219510669665
 31
0.0
  0
LINE
  5
792B
  8
0
 10
10.0
 20
962.82219510669654
 30
0.0
 11
11.0
 21
962.82219510669654
 31
0.0
  0
LINE
  5
792C
  8
0
 10
10.0
 20
978.82219510669654
 30
0.0
 11
13.0
 21
978.82219510669654
 31
0.0
  0
LINE
  5
792D
  8
0
 10
10.0
 20
973.82219510669643
 30
0.0
 11
12.0
 21
973.82219510669643
 31
0.0
  0
LINE
  5
792E
  8
0
 10
10.0
 20
975.82219510669665
 30
0.0
 11
11.0
 21
975.82219510669665
 31
0.0
  0
LINE
  5
792F
  8
0
 10
10.0
 20
976.82219510669665
 30
0.0
 11
11.0
 21
976.82219510669665
 31
0.0
  0
LINE
  5
7930
  8
0
 10
10.0
 20
977.82219510669654
 30
0.0
 11
11.0
 21
977.82219510669654
 31
0.0
  0
LINE
  5
7931
  8
0
 10
10.0
 20
972.82219510669654
 30
0.0
 11
11.0
 21
972.82219510669654
 31
0.0
  0
LINE
  5
7932
  8
0
 10
10.0
 20
971.82219510669654
 30
0.0
 11
11.0
 21
971.82219510669654
 31
0.0
  0
LINE
  5
7933
  8
0
 10
10.0
 20
974.82219510669643
 30
0.0
 11
11.0
 21
974.82219510669643
 31
0.0
  0
LINE
  5
7934
  8
0
 10
10.0
 20
983.82219510669665
 30
0.0
 11
12.0
 21
983.82219510669665
 31
0.0
  0
LINE
  5
7935
  8
0
 10
10.0
 20
986.82219510669654
 30
0.0
 11
11.0
 21
986.82219510669654
 31
0.0
  0
LINE
  5
7936
  8
0
 10
10.0
 20
982.82219510669643
 30
0.0
 11
11.0
 21
982.82219510669643
 31
0.0
  0
LINE
  5
7937
  8
0
 10
10.0
 20
981.82219510669654
 30
0.0
 11
11.0
 21
981.82219510669654
 31
0.0
  0
LINE
  5
7938
  8
0
 10
10.0
 20
980.82219510669654
 30
0.0
 11
11.0
 21
980.82219510669654
 31
0.0
  0
LINE
  5
7939
  8
0
 10
10.0
 20
979.82219510669654
 30
0.0
 11
11.0
 21
979.82219510669654
 31
0.0
  0
LINE
  5
793A
  8
0
 10
10.0
 20
984.82219510669665
 30
0.0
 11
11.0
 21
984.82219510669665
 31
0.0
  0
LINE
  5
793B
  8
0
 10
10.0
 20
985.82219510669654
 30
0.0
 11
11.0
 21
985.82219510669654
 31
0.0
  0
LINE
  5
793C
  8
0
 10
10.0
 20
988.82219510669654
 30
0.0
 11
13.0
 21
988.82219510669654
 31
0.0
  0
LINE
  5
793D
  8
0
 10
10.0
 20
993.82219510669665
 30
0.0
 11
12.0
 21
993.82219510669665
 31
0.0
  0
LINE
  5
793E
  8
0
 10
10.0
 20
992.82219510669665
 30
0.0
 11
11.0
 21
992.82219510669665
 31
0.0
  0
LINE
  5
793F
  8
0
 10
10.0
 20
991.82219510669665
 30
0.0
 11
11.0
 21
991.82219510669665
 31
0.0
  0
LINE
  5
7940
  8
0
 10
10.0
 20
990.82219510669643
 30
0.0
 11
11.0
 21
990.82219510669643
 31
0.0
  0
LINE
  5
7941
  8
0
 10
10.0
 20
989.82219510669654
 30
0.0
 11
11.0
 21
989.82219510669654
 31
0.0
  0
LINE
  5
7942
  8
0
 10
10.0
 20
994.82219510669654
 30
0.0
 11
11.0
 21
994.82219510669654
 31
0.0
  0
LINE
  5
7943
  8
0
 10
10.0
 20
987.82219510669654
 30
0.0
 11
11.0
 21
987.82219510669654
 31
0.0
  0
LINE
  5
7944
  8
0
 10
10.0
 20
998.82219510669643
 30
0.0
 11
13.0
 21
998.82219510669643
 31
0.0
  0
LINE
  5
7945
  8
0
 10
10.0
 20
999.82219510669643
 30
0.0
 11
11.0
 21
999.82219510669643
 31
0.0
  0
LINE
  5
7946
  8
0
 10
10.0
 20
1000.822195106696
 30
0.0
 11
11.0
 21
1000.822195106696
 31
0.0
  0
LINE
  5
7947
  8
0
 10
10.0
 20
1001.8221951066949
 30
0.0
 11
11.0
 21
1001.8221951066949
 31
0.0
  0
LINE
  5
7948
  8
0
 10
10.0
 20
1002.822195106696
 30
0.0
 11
11.0
 21
1002.822195106696
 31
0.0
  0
LINE
  5
7949
  8
0
 10
10.0
 20
996.82219510669654
 30
0.0
 11
11.0
 21
996.82219510669654
 31
0.0
  0
LINE
  5
794A
  8
0
 10
10.0
 20
997.82219510669654
 30
0.0
 11
11.0
 21
997.82219510669654
 31
0.0
  0
LINE
  5
794B
  8
0
 10
10.0
 20
995.82219510669654
 30
0.0
 11
11.0
 21
995.82219510669654
 31
0.0
  0
TEXT
  5
794C
  8
0
 10
12.25
 20
1011.655528440028
 30
0.0
 40
2.5
  1
(ｍ)
 72
     1
 11
15.0
 21
1011.3221951066949
 31
0.0
 73
     1
  0
LINE
  5
794D
  8
0
 10
10.0
 20
1003.822195106696
 30
0.0
 11
12.0
 21
1003.822195106696
 31
0.0
  0
LINE
  5
794E
  8
0
 10
10.0
 20
1007.8221951066949
 30
0.0
 11
11.0
 21
1007.8221951066949
 31
0.0
  0
LINE
  5
794F
  8
0
 10
10.0
 20
1006.822195106696
 30
0.0
 11
11.0
 21
1006.822195106696
 31
0.0
  0
LINE
  5
7950
  8
0
 10
10.0
 20
1005.822195106696
 30
0.0
 11
11.0
 21
1005.822195106696
 31
0.0
  0
LINE
  5
7951
  8
0
 10
10.0
 20
1004.822195106696
 30
0.0
 11
11.0
 21
1004.822195106696
 31
0.0
  0
TEXT
  5
7952
  8
0
 10
22.25
 20
1011.655528440028
 30
0.0
 40
2.5
  1
(ｍ)
 72
     1
 11
25.0
 21
1011.3221951066949
 31
0.0
 73
     1
  0
TEXT
  5
7953
  8
0
 10
78.0
 20
1026.2221951066949
 30
0.0
 40
3.0
  1
色　　調
  7
STANDATDT
 72
     4
 11
78.0
 21
1019.3221951066949
 31
0.0
  0
TEXT
  5
7954
  8
0
 10
87.0
 20
1026.3221951066951
 30
0.0
 40
3.0
  1
硬　　軟
  7
STANDATDT
 72
     4
 11
87.0
 21
1019.3221951066949
 31
0.0
  0
LINE
  5
7955
  8
0
 10
106.0000008280724
 20
1009.822195407038
 30
0.0
 11
106.0000008280724
 21
1028.822195407038
 31
0.0
  0
LINE
  5
7956
  8
0
 10
83.0
 20
1009.8221951066949
 30
0.0
 11
83.0
 21
1028.822195106696
 31
0.0
  0
LINE
  5
7957
  8
0
 10
73.0
 20
1009.8221951066949
 30
0.0
 11
73.0
 21
1028.822195106696
 31
0.0
  0
TEXT
  5
7958
  8
0
 10
65.699999999999903
 20
1030.2221951066961
 30
0.0
 40
3.0
  1
地　　　　　　　　　　　　　　　　　質
 72
     1
 11
99.499999999999901
 21
1029.822195106696
 31
0.0
 73
     1
  0
LINE
  5
7959
  8
0
 10
177.0
 20
1028.822195106696
 30
0.0
 11
251.0
 21
1028.822195106696
 31
0.0
  0
LINE
  5
795A
  8
0
 10
176.0
 20
1009.8221951066949
 30
0.0
 11
176.0
 21
1034.822195106696
 31
0.0
  0
LINE
  5
795B
  8
0
 10
177.0
 20
1009.8221951066949
 30
0.0
 11
177.0
 21
1034.822195106696
 31
0.0
  0
LINE
  5
795C
  8
0
 10
226.0
 20
1009.8221951066949
 30
0.0
 11
225.9999999999998
 21
1023.8221951066949
 31
0.0
  0
LINE
  5
795D
  8
0
 10
176.0
 20
1009.8221951066949
 30
0.0
 11
176.0
 21
1028.822195106696
 31
0.0
  0
LINE
  5
795E
  8
0
 10
213.0
 20
1023.821935032933
 30
0.0
 11
213.0
 21
1009.821935032933
 31
0.0
  0
LINE
  5
795F
  8
0
 10
251.0
 20
1009.8221951066949
 30
0.0
 11
251.0
 21
1034.822195106696
 31
0.0
  0
LINE
  5
7960
  8
0
 10
261.0
 20
1009.8221951066949
 30
0.0
 11
261.0
 21
1034.822195106696
 31
0.0
  0
TEXT
  5
7961
  8
0
 10
16.99708977370635
 20
957.82219510669643
 30
0.0
 40
2.0
  1
5
 72
     2
 11
18.330423107039682
 21
958.82219510669665
 31
0.0
 73
     2
  0
TEXT
  5
7962
  8
0
 10
16.99708977370635
 20
967.82219510669665
 30
0.0
 40
2.0
  1
4
 72
     2
 11
18.330423107039682
 21
968.82219510669665
 31
0.0
 73
     2
  0
TEXT
  5
7963
  8
0
 10
16.99708977370635
 20
977.82219510669654
 30
0.0
 40
2.0
  1
3
 72
     2
 11
18.330423107039682
 21
978.82219510669654
 31
0.0
 73
     2
  0
TEXT
  5
7964
  8
0
 10
16.99708977370635
 20
987.82219510669654
 30
0.0
 40
2.0
  1
2
 72
     2
 11
18.330423107039682
 21
988.82219510669654
 31
0.0
 73
     2
  0
TEXT
  5
7965
  8
0
 10
17.66375644037301
 20
997.82219510669654
 30
0.0
 40
2.0
  1
1
 72
     2
 11
18.330423107039682
 21
998.82219510669643
 31
0.0
 73
     2
  0
TEXT
  5
7966
  8
0
 10
16.99708977370635
 20
947.82219510669654
 30
0.0
 40
2.0
  1
6
 72
     2
 11
18.330423107039682
 21
948.82219510669643
 31
0.0
 73
     2
  0
TEXT
  5
7967
  8
0
 10
16.99708977370635
 20
937.82219510669654
 30
0.0
 40
2.0
  1
7
 72
     2
 11
18.330423107039682
 21
938.82219510669654
 31
0.0
 73
     2
  0
TEXT
  5
7968
  8
0
 10
16.99708977370635
 20
927.82219510669654
 30
0.0
 40
2.0
  1
8
 72
     2
 11
18.330423107039682
 21
928.82219510669654
 31
0.0
 73
     2
  0
TEXT
  5
7969
  8
0
 10
16.99708977370635
 20
917.82219510669665
 30
0.0
 40
2.0
  1
9
 72
     2
 11
18.330423107039682
 21
918.82219510669665
 31
0.0
 73
     2
  0
TEXT
  5
796A
  8
0
 10
15.997089773706341
 20
907.82219510669643
 30
0.0
 40
2.0
  1
10
 72
     2
 11
18.330423107039682
 21
908.82219510669665
 31
0.0
 73
     2
  0
TEXT
  5
796B
  8
0
 10
198.45689252563739
 20
1062.0721948623559
 30
0.0
 40
3.5
  1
～
 11
198.45689252563739
 21
1063.8221948623559
 31
0.0
 73
     2
  0
LINE
  5
796C
  8
0
 10
231.0
 20
1009.8221951066949
 30
0.0
 11
231.0
 21
1023.8221951066949
 31
0.0
  0
LINE
  5
796D
  8
0
 10
256.0
 20
1009.8221951066949
 30
0.0
 11
256.0
 21
1034.822195106696
 31
0.0
  0
LINE
  5
796E
  8
0
 10
50.0
 20
1009.8221951066949
 30
0.0
 11
50.0
 21
1028.822195106696
 31
0.0
  0
LINE
  5
796F
  8
0
 10
205.0
 20
1023.821935032933
 30
0.0
 11
205.0
 21
1009.821935032933
 31
0.0
  0
LINE
  5
7970
  8
0
 10
197.0
 20
1023.8221951066949
 30
0.0
 11
241.0
 21
1023.8221951066949
 31
0.0
  0
TEXT
  5
7971
  8
0
 10
98.540399734216521
 20
1026.3221954070391
 30
0.0
 40
3.0
  1
風　　化
  7
STANDATDT
 72
     4
 11
98.540399734216521
 21
1019.322195407039
 31
0.0
  0
TEXT
  5
7972
  8
0
 10
93.540399734216592
 20
1026.522195407038
 30
0.0
 40
3.0
  1
コア形状
  7
STANDATDT
 72
     4
 11
93.540399734216592
 21
1019.322195407039
 31
0.0
  0
LINE
  5
7973
  8
0
 10
96.000000828072416
 20
1009.822195407038
 30
0.0
 11
96.000000828072416
 21
1028.822195407038
 31
0.0
  0
LINE
  5
7974
  8
0
 10
91.000000828072416
 20
1009.822195407038
 30
0.0
 11
91.000000828072416
 21
1028.822195407038
 31
0.0
  0
TEXT
  5
7975
  8
0
 10
103.54039973421651
 20
1026.222195407038
 30
0.0
 40
3.0
  1
変　　質
  7
STANDATDT
 72
     4
 11
103.54039973421651
 21
1019.322195407039
 31
0.0
  0
LINE
  5
7976
  8
0
 10
101.0000008280724
 20
1009.822195407038
 30
0.0
 11
101.0000008280724
 21
1028.822195407038
 31
0.0
  0
LINE
  5
7977
  8
0
 10
187.0
 20
1009.8221951066949
 30
0.0
 11
187.0
 21
1028.822195106696
 31
0.0
  0
LINE
  5
7978
  8
0
 10
197.0
 20
1009.8221951066949
 30
0.0
 11
197.0
 21
1028.822195106696
 31
0.0
  0
LINE
  5
7979
  8
0
 10
221.0
 20
1009.8221951066949
 30
0.0
 11
220.9999999999998
 21
1028.822195106696
 31
0.0
  0
TEXT
  5
797A
  8
0
 10
161.33333333333329
 20
1020.796950462855
 30
0.0
 40
2.5
  1
貫入試験
 72
     1
 11
167.0
 21
1020.463617129522
 31
0.0
 73
     1
  0
TEXT
  5
797B
  8
0
 10
161.33333333333329
 20
1024.380873665888
 30
0.0
 40
2.5
  1
標　　準
 72
     1
 11
167.0
 21
1024.0475403325549
 31
0.0
 73
     1
  0
LINE
  5
797C
  8
0
 10
158.0
 20
1018.822195407037
 30
0.0
 11
176.0
 21
1018.822195407037
 31
0.0
  0
TEXT
  5
797D
  8
0
 10
156.10491679478699
 20
1026.6208838088589
 30
0.0
 40
3.0
  1
コ　ア
  7
STANDATDT
 72
     4
 11
156.10491679478699
 21
1021.320883808858
 31
0.0
  0
TEXT
  5
797E
  8
0
 10
151.96766895965641
 20
1026.420883808858
 30
0.0
 40
3.0
  1
採取率
  7
STANDATDT
 72
     4
 11
151.96766895965641
 21
1021.320883808858
 31
0.0
  0
LINE
  5
797F
  8
0
 10
150.00000082807239
 20
1009.822195407038
 30
0.0
 11
150.00000082807239
 21
1028.822195407038
 31
0.0
  0
TEXT
  5
7980
  8
0
 10
151.25000082807239
 20
1010.782917659491
 30
0.0
 40
2.5
  1
(％)
 72
     1
 11
154.00000082807239
 21
1010.4495843261579
 31
0.0
 73
     1
  0
LINE
  5
7981
  8
0
 10
158.00000082807239
 20
1009.822195407038
 30
0.0
 11
158.00000082807239
 21
1028.822195407038
 31
0.0
  0
LINE
  5
7982
  8
0
 10
158.00000082807239
 20
1009.822195407038
 30
0.0
 11
158.00000082807239
 21
1028.822195407038
 31
0.0
  0
TEXT
  5
7983
  8
0
 10
164.5
 20
1017.722195407037
 30
0.0
 40
3.0
  1
区間
  7
STANDATDT
 72
     4
 11
164.5
 21
1014.322195407036
 31
0.0
  0
TEXT
  5
7984
  8
0
 10
173.4999999999998
 20
1017.722195407037
 30
0.0
 40
3.0
  1
Ｎ値
  7
STANDATDT
 72
     4
 11
173.4999999999998
 21
1014.322195407036
 31
0.0
  0
LINE
  5
7985
  8
0
 10
171.0
 20
1009.822195407038
 30
0.0
 11
171.0
 21
1018.822195407037
 31
0.0
  0
TEXT
  5
7986
  8
0
 10
109.6605321241932
 20
1044.246195110604
 30
0.0
 40
1.8
  1
90゜
 72
     1
 11
111.5505321241932
 21
1045.1461951106039
 31
0.0
 73
     2
  0
TEXT
  5
7987
  8
0
 10
101.5833333333333
 20
1070.572195106696
 30
0.0
 40
2.5
  1
調査位置
 72
     1
 11
107.25
 21
1071.822195106696
 31
0.0
 73
     2
  0
TEXT
  5
7988
  8
0
 10
101.5833333333333
 20
1054.572195106696
 30
0.0
 40
2.5
  1
主任技師
 72
     1
 11
107.25
 21
1055.822195106696
 31
0.0
 73
     2
  0
POLYLINE
  5
7989
  8
0
 66
     1
 10
0.0
 20
0.0
 30
0.0
 70
     1
  0
VERTEX
  5
836B
  8
0
 10
288.0
 20
1035.822195106696
 30
0.0
  0
VERTEX
  5
836C
  8
0
 10
10.0
 20
1035.822195106696
 30
0.0
  0
VERTEX
  5
836D
  8
0
 10
10.0
 20
1075.822195106696
 30
0.0
  0
VERTEX
  5
836E
  8
0
 10
288.0
 20
1075.822195106696
 30
0.0
  0
SEQEND
  5
836F
  8
0
  0
LINE
  5
798F
  8
0
 10
52.0
 20
1088.322195106696
 30
0.0
 11
207.0
 21
1088.322195106696
 31
0.0
  0
LINE
  5
7990
  8
0
 10
52.0
 20
1077.822195106696
 30
0.0
 11
207.0
 21
1077.822195106696
 31
0.0
  0
LINE
  5
7991
  8
0
 10
10.0
 20
1051.822195106696
 30
0.0
 11
288.0
 21
1051.822195106696
 31
0.0
  0
LINE
  5
7992
  8
0
 10
10.0
 20
1059.822195106696
 30
0.0
 11
288.0
 21
1059.822195106696
 31
0.0
  0
LINE
  5
7993
  8
0
 10
10.0
 20
1067.822195106696
 30
0.0
 11
288.0
 21
1067.822195106696
 31
0.0
  0
LINE
  5
7994
  8
0
 10
103.2499999999999
 20
1043.822195106696
 30
0.0
 11
103.2499999999999
 21
1038.1175777011961
 31
0.0
  0
TEXT
  5
7995
  8
0
 10
104.5291707453859
 20
1037.0667626327429
 30
0.0
 40
1.8
  1
南
 72
     1
 11
105.3691707453859
 21
1037.966762632743
 31
0.0
 73
     2
  0
TEXT
  5
7996
  8
0
 10
98.683980293036015
 20
1037.0667626327429
 30
0.0
 40
1.8
  1
180゜
 72
     1
 11
101.173980293036
 21
1037.966762632743
 31
0.0
 73
     2
  0
LINE
  5
7997
  8
0
 10
93.0
 20
1035.822195106696
 30
0.0
 11
93.0
 21
1051.822195106696
 31
0.0
  0
LINE
  5
7998
  8
0
 10
85.0
 20
1035.822195106696
 30
0.0
 11
85.0
 21
1051.822195106696
 31
0.0
  0
TEXT
  5
7999
  8
0
 10
89.0
 20
1049.572195106696
 30
0.0
 40
2.5
  1
方　　向
  7
STANDATDT
 72
     1
 11
89.0
 21
1043.822195106696
 31
0.0
 73
     2
  0
TEXT
  5
799A
  8
0
 10
74.455926910257048
 20
1036.6093226440621
 30
0.0
 40
1.8
  1
0゜
 72
     1
 11
75.445926910257043
 21
1037.509322644062
 31
0.0
 73
     2
  0
LINE
  5
799B
  8
0
 10
75.500000223754114
 20
1043.822195106696
 30
0.0
 11
75.500000223754114
 21
1038.1175777011961
 31
0.0
  0
LINE
  5
799C
  8
0
 10
69.0
 20
1035.822195106696
 30
0.0
 11
69.0
 21
1051.822195106696
 31
0.0
  0
TEXT
  5
799D
  8
0
 10
64.5
 20
1049.572195106696
 30
0.0
 40
2.5
  1
角　　度
  7
STANDATDT
 72
     1
 11
64.5
 21
1043.822195106696
 31
0.0
 73
     2
  0
TEXT
  5
799E
  8
0
 10
55.54753692108374
 20
1038.443231838565
 30
0.0
 40
3.0
  1
m
 72
     1
 11
56.547536921083747
 21
1039.943231838565
 31
0.0
 73
     2
  0
LINE
  5
799F
  8
0
 10
60.0
 20
1035.822195106696
 30
0.0
 11
60.0
 21
1051.822195106696
 31
0.0
  0
LINE
  5
79A0
  8
0
 10
36.0
 20
1035.822195106696
 30
0.0
 11
36.0
 21
1075.822195106696
 31
0.0
  0
TEXT
  5
79A1
  8
0
 10
12.83333333333333
 20
1038.572195106696
 30
0.0
 40
2.5
  1
総　掘　進　長
 72
     1
 11
23.0
 21
1039.822195106696
 31
0.0
 73
     2
  0
TEXT
  5
79A2
  8
0
 10
16.4163855562417
 20
1070.572195106696
 30
0.0
 40
2.5
  1
ー
 72
     1
 11
17.583052222908371
 21
1071.822195106696
 31
0.0
 73
     2
  0
TEXT
  5
79A3
  8
0
 10
12.916666666666661
 20
1062.572195106696
 30
0.0
 40
2.5
  1
発  注  機  関
 72
     1
 11
23.0
 21
1063.822195106696
 31
0.0
 73
     2
  0
TEXT
  5
79A4
  8
0
 10
12.83333333333333
 20
1046.572195106696
 30
0.0
 40
2.5
  1
孔  口  標  高
 72
     1
 11
23.0
 21
1047.822195106696
 31
0.0
 73
     2
  0
TEXT
  5
79A5
  8
0
 10
12.916666666666661
 20
1054.572195106696
 30
0.0
 40
2.5
  1
調 査 業 者 名
 72
     1
 11
23.0
 21
1055.822195106696
 31
0.0
 73
     2
  0
LINE
  5
79A6
  8
0
 10
10.0
 20
1043.822195106696
 30
0.0
 11
60.0
 21
1043.822195106696
 31
0.0
  0
TEXT
  5
79A7
  8
0
 10
12.44609981837675
 20
1070.572195106696
 30
0.0
 40
2.5
  1
ボ
 72
     1
 11
13.69609981837675
 21
1071.822195106696
 31
0.0
 73
     2
  0
TEXT
  5
79A8
  8
0
 10
50.39173740336728
 20
1052.915505215029
 30
0.0
 40
2.0
  1
（          　  　　　　　   ）
 72
     1
 11
68.658404070033953
 21
1053.915505215029
 31
0.0
 73
     2
  0
TEXT
  5
79A9
  8
0
 10
55.241122999872083
 20
1080.0392257389669
 30
0.0
 40
4.0
  1
事業・工事名
 72
     1
 11
68.97445633320541
 21
1082.0392257389669
 31
0.0
 73
     2
  0
TEXT
  5
79AA
  8
0
 10
55.241122999872083
 20
1090.5392257389681
 30
0.0
 40
4.0
  1
調   査   名
 72
     1
 11
68.97445633320541
 21
1092.5392257389681
 31
0.0
 73
     2
  0
TEXT
  5
79AB
  8
0
 10
27.91057610316987
 20
1070.572195106696
 30
0.0
 40
2.5
  1
グ
 72
     1
 11
29.243909436503209
 21
1071.822195106696
 31
0.0
 73
     2
  0
TEXT
  5
79AC
  8
0
 10
32.047528507701507
 20
1070.572195106696
 30
0.0
 40
2.5
  1
名
 72
     1
 11
33.13086184103485
 21
1071.822195106696
 31
0.0
 73
     2
  0
TEXT
  5
79AD
  8
0
 10
24.106957031971611
 20
1070.572195106696
 30
0.0
 40
2.5
  1
ン
 72
     1
 11
25.356957031971611
 21
1071.822195106696
 31
0.0
 73
     2
  0
TEXT
  5
79AE
  8
0
 10
20.30333796077332
 20
1070.572195106696
 30
0.0
 40
2.5
  1
リ
 72
     1
 11
21.470004627439991
 21
1071.822195106696
 31
0.0
 73
     2
  0
TEXT
  5
79AF
  8
0
 10
43.956225062303801
 20
1052.915505215029
 30
0.0
 40
2.0
  1
電話
 72
     1
 11
46.089558395637141
 21
1053.915505215029
 31
0.0
 73
     2
  0
TEXT
  5
79B0
  8
0
 10
55.54753692108374
 20
1046.443231838565
 30
0.0
 40
3.0
  1
m
 72
     1
 11
56.547536921083747
 21
1047.943231838565
 31
0.0
 73
     2
  0
LINE
  5
79B1
  8
0
 10
99.0
 20
1075.822195106696
 30
0.0
 11
99.0
 21
1067.822195106696
 31
0.0
  0
TEXT
  5
79B2
  8
0
 10
72.311722501059222
 20
1049.7696716593971
 30
0.0
 40
1.8
  1
180゜
 72
     1
 11
74.801722501059217
 21
1050.669671659397
 31
0.0
 73
     2
  0
LINE
  5
79B3
  8
0
 10
75.500000223754114
 20
1043.822195106696
 30
0.0
 11
81.204617629254344
 21
1043.822195106696
 31
0.0
  0
ARC
  5
79B4
  8
0
 10
75.500000223754114
 20
1043.822195106696
 30
0.0
 40
4.5
 50
270.0
 51
90.0
  0
LINE
  5
79B5
  8
0
 10
75.500000223754114
 20
1043.822195106696
 30
0.0
 11
75.500000223754114
 21
1049.526812512197
 31
0.0
  0
TEXT
  5
79B6
  8
0
 10
72.777047559151612
 20
1045.6949201229261
 30
0.0
 40
1.8
  1
上
 72
     1
 11
73.617047559151615
 21
1046.5949201229259
 31
0.0
 73
     2
  0
TEXT
  5
79B7
  8
0
 10
72.777047559151612
 20
1041.0016103420701
 30
0.0
 40
1.8
  1
下
 72
     1
 11
73.617047559151615
 21
1041.9016103420699
 31
0.0
 73
     2
  0
TEXT
  5
79B8
  8
0
 10
81.287348056396567
 20
1044.7246310108831
 30
0.0
 40
1.8
  1
90゜
 72
     1
 11
83.177348056396568
 21
1045.6246310108829
 31
0.0
 73
     2
  0
LINE
  5
79B9
  8
0
 10
99.0
 20
1059.822195106696
 30
0.0
 11
99.0
 21
1051.822195106696
 31
0.0
  0
TEXT
  5
79BA
  8
0
 10
100.6249312824494
 20
1049.264282762309
 30
0.0
 40
1.8
  1
北
 72
     1
 11
101.4649312824493
 21
1050.1642827623079
 31
0.0
 73
     2
  0
LINE
  5
79BB
  8
0
 10
103.2499999999999
 20
1043.822195106696
 30
0.0
 11
97.545382594499699
 21
1043.822195106696
 31
0.0
  0
CIRCLE
  5
79BC
  8
0
 10
103.2499999999999
 20
1043.822195106696
 30
0.0
 40
4.5
  0
TEXT
  5
79BD
  8
0
 10
95.105309771431294
 20
1041.6244502920581
 30
0.0
 40
1.8
  1
西
 72
     1
 11
95.945309771431283
 21
1042.524450292058
 31
0.0
 73
     2
  0
TEXT
  5
79BE
  8
0
 10
94.067334022075187
 20
1044.246195110604
 30
0.0
 40
1.8
  1
270゜
 72
     1
 11
96.857334022075193
 21
1045.1461951106039
 31
0.0
 73
     2
  0
LINE
  5
79BF
  8
0
 10
103.2499999999999
 20
1043.822195106696
 30
0.0
 11
103.2499999999999
 21
1049.526812512197
 31
0.0
  0
LINE
  5
79C0
  8
0
 10
103.2499999999999
 20
1043.822195106696
 30
0.0
 11
108.9546174054998
 21
1043.822195106696
 31
0.0
  0
TEXT
  5
79C1
  8
0
 10
109.4269034460918
 20
1041.6244502920581
 30
0.0
 40
1.8
  1
東
 72
     1
 11
110.2669034460918
 21
1042.524450292058
 31
0.0
 73
     2
  0
TEXT
  5
79C2
  8
0
 10
105.9118367462349
 20
1049.1813075087689
 30
0.0
 40
1.8
  1
0゜
 72
     1
 11
106.90183674623491
 21
1050.081307508769
 31
0.0
 73
     2
  0
LINE
  5
79C3
  8
0
 10
237.0
 20
1051.822195106696
 30
0.0
 11
237.0
 21
1035.822195106696
 31
0.0
  0
LINE
  5
79C4
  8
0
 10
220.0
 20
1051.822195106696
 30
0.0
 11
220.0
 21
1035.822195106696
 31
0.0
  0
TEXT
  5
79C5
  8
0
 10
222.75
 20
1038.572195106696
 30
0.0
 40
2.5
  1
ポ ン プ
 72
     1
 11
228.5
 21
1039.822195106696
 31
0.0
 73
     2
  0
LINE
  5
79C6
  8
0
 10
162.5
 20
1035.822195106696
 30
0.0
 11
162.5
 21
1067.822195106696
 31
0.0
  0
TEXT
  5
79C7
  8
0
 10
141.5
 20
1049.572195106696
 30
0.0
 40
2.5
  1
使用機種
  7
STANDATDT
 72
     1
 11
141.5
 21
1043.822195106696
 31
0.0
 73
     2
  0
LINE
  5
79C8
  8
0
 10
145.4999999999996
 20
1035.822195106696
 30
0.0
 11
145.4999999999996
 21
1067.822195106696
 31
0.0
  0
TEXT
  5
79C9
  8
0
 10
148.33333333333329
 20
1038.572195106696
 30
0.0
 40
2.5
  1
エンジン
 72
     1
 11
154.0
 21
1039.822195106696
 31
0.0
 73
     2
  0
LINE
  5
79CA
  8
0
 10
137.5
 20
1035.822195106696
 30
0.0
 11
137.5
 21
1051.822195106696
 31
0.0
  0
TEXT
  5
79CB
  8
0
 10
126.0157017748582
 20
1038.4224130580051
 30
0.0
 40
1.8
  1
90゜
 72
     1
 11
127.9057017748582
 21
1039.3224130580061
 31
0.0
 73
     2
  0
LINE
  5
79CC
  8
0
 10
121.4999999999996
 20
1035.822195106696
 30
0.0
 11
121.4999999999996
 21
1051.822195106696
 31
0.0
  0
TEXT
  5
79CD
  8
0
 10
117.5
 20
1049.572195106696
 30
0.0
 40
2.5
  1
地盤勾配
  7
STANDATDT
 72
     1
 11
117.5
 21
1043.822195106696
 31
0.0
 73
     2
  0
LINE
  5
79CE
  8
0
 10
113.5
 20
1035.822195106696
 30
0.0
 11
113.5
 21
1051.822195106696
 31
0.0
  0
TEXT
  5
79CF
  8
0
 10
194.7499999999998
 20
1056.072195106696
 30
0.0
 40
2.5
  1
コ　　ア
 72
     1
 11
200.49999999999989
 21
1057.322195106696
 31
0.0
 73
     2
  0
TEXT
  5
79D0
  8
0
 10
194.8333333333332
 20
1053.072195106696
 30
0.0
 40
2.5
  1
鑑 定 者
 72
     1
 11
200.49999999999989
 21
1054.322195106696
 31
0.0
 73
     2
  0
LINE
  5
79D1
  8
0
 10
145.4999999999996
 20
1043.822195106696
 30
0.0
 11
288.0
 21
1043.822195106696
 31
0.0
  0
TEXT
  5
79D2
  8
0
 10
125.1666666666664
 20
1102.9288849372399
 30
0.0
 40
5.0
  1
ボーリング柱状図
 72
     1
 11
148.4999999999998
 21
1105.4288849372399
 31
0.0
 73
     2
  0
TEXT
  5
79D3
  8
0
 10
148.33333333333329
 20
1046.572195106696
 30
0.0
 40
2.5
  1
試 錐 機
 72
     1
 11
154.0
 21
1047.822195106696
 31
0.0
 73
     2
  0
TEXT
  5
79D4
  8
0
 10
148.33333333333329
 20
1053.072195106696
 30
0.0
 40
2.5
  1
代 理 人
 72
     1
 11
154.0
 21
1054.322195106696
 31
0.0
 73
     2
  0
TEXT
  5
79D5
  8
0
 10
148.33333333333329
 20
1056.072195106696
 30
0.0
 40
2.5
  1
現　　場
 72
     1
 11
154.0
 21
1057.322195106696
 31
0.0
 73
     2
  0
TEXT
  5
79D6
  8
0
 10
148.4166666666666
 20
1062.572195106696
 30
0.0
 40
2.5
  1
調査期間
 72
     1
 11
154.0
 21
1063.822195106696
 31
0.0
 73
     2
  0
LINE
  5
79D7
  8
0
 10
115.5
 20
1075.822195106696
 30
0.0
 11
115.5
 21
1067.822195106696
 31
0.0
  0
TEXT
  5
79D8
  8
0
 10
133.8597423266454
 20
1045.9885726561311
 30
0.0
 40
1.8
  1
0゜
 72
     1
 11
134.84974232664541
 21
1046.8885726561309
 31
0.0
 73
     2
  0
LINE
  5
79D9
  8
0
 10
115.5
 20
1059.822195106696
 30
0.0
 11
115.5
 21
1051.822195106696
 31
0.0
  0
TEXT
  5
79DA
  8
0
 10
124.53747192386921
 20
1046.325305199249
 30
0.0
 40
1.8
  1
鉛直
  7
STANDATDT
 72
     1
 11
124.53747192386921
 21
1044.345305199249
 31
0.0
 73
     2
  0
TEXT
  5
79DB
  8
0
 10
127.9442777811494
 20
1047.271776902779
 30
0.0
 40
1.8
  1
水平
 72
     1
 11
129.86427778114941
 21
1048.1717769027789
 31
0.0
 73
     2
  0
ARC
  5
79DC
  8
0
 10
126.4999842828085
 20
1046.6065387285951
 30
0.0
 40
4.5
 50
270.0
 51
0.0
  0
LINE
  5
79DD
  8
0
 10
126.4999842828085
 20
1046.6065387285951
 30
0.0
 11
132.20460168830891
 21
1046.6065387285951
 31
0.0
  0
LINE
  5
79DE
  8
0
 10
126.4999842828085
 20
1046.6065387285951
 30
0.0
 11
126.4999842828085
 21
1040.9019213230949
 31
0.0
  0
LINE
  5
79DF
  8
0
 10
192.4999999999998
 20
1051.822195106696
 30
0.0
 11
192.4999999999998
 21
1059.822195106696
 31
0.0
  0
TEXT
  5
79E0
  8
0
 10
242.33333333333329
 20
1056.072195106696
 30
0.0
 40
2.5
  1
ボーリン
 72
     1
 11
248.0
 21
1057.322195106696
 31
0.0
 73
     2
  0
TEXT
  5
79E1
  8
0
 10
242.1666666666666
 20
1053.072195106696
 30
0.0
 40
2.5
  1
グ責任者
 72
     1
 11
248.0
 21
1054.322195106696
 31
0.0
 73
     2
  0
TEXT
  5
79E2
  8
0
 10
242.33333333333329
 20
1062.572195106696
 30
0.0
 40
2.5
  1
東　　経
 72
     1
 11
248.0
 21
1063.822195106696
 31
0.0
 73
     2
  0
TEXT
  5
79E3
  8
0
 10
242.33333333333329
 20
1070.572195106696
 30
0.0
 40
2.5
  1
北　　緯
 72
     1
 11
248.0
 21
1071.822195106696
 31
0.0
 73
     2
  0
POLYLINE
  5
79E4
  8
0
 66
     1
 10
0.0
 20
0.0
 30
0.0
 70
     1
  0
VERTEX
  5
8370
  8
0
 10
288.0
 20
1084.822195106696
 30
0.0
  0
VERTEX
  5
8371
  8
0
 10
224.0
 20
1084.822195106696
 30
0.0
  0
VERTEX
  5
8372
  8
0
 10
224.0
 20
1093.3221951066971
 30
0.0
  0
VERTEX
  5
8373
  8
0
 10
288.0
 20
1093.3221951066971
 30
0.0
  0
SEQEND
  5
8374
  8
0
  0
LINE
  5
79EA
  8
0
 10
239.5
 20
1075.822195106696
 30
0.0
 11
239.5
 21
1051.822195106696
 31
0.0
  0
TEXT
  5
79EB
  8
0
 10
222.9166666666666
 20
1048.072195106696
 30
0.0
 40
2.5
  1
ハンマー
 72
     1
 11
228.5
 21
1049.322195106696
 31
0.0
 73
     2
  0
TEXT
  5
79EC
  8
0
 10
222.83333333333329
 20
1045.072195106696
 30
0.0
 40
2.5
  1
落下用具
 72
     1
 11
228.5
 21
1046.322195106696
 31
0.0
 73
     2
  0
LINE
  5
79ED
  8
0
 10
209.0
 20
1051.822195106696
 30
0.0
 11
209.0
 21
1059.822195106696
 31
0.0
  0
TEXT
  5
79EE
  8
0
 10
227.22290107282191
 20
1076.8575759876039
 30
0.0
 40
2.0
  1
シートNo.
 72
     1
 11
232.82290107282191
 21
1077.8575759876039
 31
0.0
 73
     2
  0
TEXT
  5
79EF
  8
0
 10
226.0
 20
1088.0721951066971
 30
0.0
 40
2.0
  1
ボーリングNo.
 72
     1
 11
234.0
 21
1089.0721951066971
 31
0.0
 73
     2
  0
LINE
  5
79F0
  8
0
 10
252.0
 20
1093.3221951066971
 30
0.0
 11
252.0
 21
1084.822195106696
 31
0.0
  0
LINE
  5
79F1
  8
0
 10
248.0
 20
1093.3221951066971
 30
0.0
 11
248.0
 21
1084.822195106696
 31
0.0
  0
LINE
  5
79F2
  8
0
 10
244.0
 20
1093.3221951066971
 30
0.0
 11
244.0
 21
1084.822195106696
 31
0.0
  0
LINE
  5
79F3
  8
0
 10
256.49999999999989
 20
1075.822195106696
 30
0.0
 11
256.49999999999989
 21
1051.822195106696
 31
0.0
  0
LINE
  5
79F4
  8
0
 10
276.0
 20
1093.3221951066971
 30
0.0
 11
276.0
 21
1084.822195106696
 31
0.0
  0
LINE
  5
79F5
  8
0
 10
272.0
 20
1093.3221951066971
 30
0.0
 11
272.0
 21
1084.822195106696
 31
0.0
  0
LINE
  5
79F6
  8
0
 10
268.0
 20
1093.3221951066971
 30
0.0
 11
268.0
 21
1084.822195106696
 31
0.0
  0
LINE
  5
79F7
  8
0
 10
264.0
 20
1093.3221951066971
 30
0.0
 11
264.0
 21
1084.822195106696
 31
0.0
  0
LINE
  5
79F8
  8
0
 10
260.0
 20
1093.3221951066971
 30
0.0
 11
260.0
 21
1084.822195106696
 31
0.0
  0
LINE
  5
79F9
  8
0
 10
256.0
 20
1093.3221951066971
 30
0.0
 11
256.0
 21
1084.822195106696
 31
0.0
  0
LINE
  5
79FA
  8
0
 10
284.0
 20
1093.3221951066971
 30
0.0
 11
284.0
 21
1084.822195106696
 31
0.0
  0
LINE
  5
79FB
  8
0
 10
280.0
 20
1093.3221951066971
 30
0.0
 11
280.0
 21
1084.822195106696
 31
0.0
  0
LINE
  5
79FC
  8
0
 10
241.0
 20
1009.8221951066949
 30
0.0
 11
241.0
 21
1028.822195106696
 31
0.0
  0
LINE
  5
79FD
  8
0
 10
251.0
 20
1009.8221951066949
 30
0.0
 11
251.0
 21
1028.822195106696
 31
0.0
  0
LINE
  5
79FE
  8
0
 10
73.000000000000014
 20
8.8221951066968813
 30
0.0
 11
73.0
 21
1008.822195106696
 31
0.0
  0
LINE
  5
79FF
  8
0
 10
50.000000000000071
 20
8.8221951066968813
 30
0.0
 11
50.0
 21
1008.822195106696
 31
0.0
  0
LINE
  5
7A00
  8
0
 10
40.0
 20
8.8221951066968813
 30
0.0
 11
40.0
 21
1008.822195106696
 31
0.0
  0
LINE
  5
7A01
  8
0
 10
30.0
 20
8.8221951066968813
 30
0.0
 11
30.0
 21
1008.822195106696
 31
0.0
  0
LINE
  5
7A02
  8
0
 10
20.0
 20
8.8221951066968813
 30
0.0
 11
20.0
 21
1008.822195106696
 31
0.0
  0
LINE
  5
7A03
  8
0
 10
83.0
 20
8.8221951066968813
 30
0.0
 11
83.0
 21
1008.822195106696
 31
0.0
  0
LINE
  5
7A04
  8
0
 10
91.000000828072416
 20
8.8221951066968813
 30
0.0
 11
91.000000828072416
 21
1008.822195407039
 31
0.0
  0
LINE
  5
7A05
  8
0
 10
96.000000828072302
 20
8.8221951066968813
 30
0.0
 11
96.000000828072416
 21
1008.822195407039
 31
0.0
  0
LINE
  5
7A06
  8
0
 10
101.0000008280723
 20
8.8221951066968813
 30
0.0
 11
101.0000008280724
 21
1008.822195407039
 31
0.0
  0
LINE
  5
7A07
  8
0
 10
106.0000008280723
 20
8.8221951066968813
 30
0.0
 11
106.0000008280724
 21
1008.822195407039
 31
0.0
  0
LINE
  5
7A08
  8
0
 10
150.00000082807239
 20
8.8221951066968813
 30
0.0
 11
150.00000082807239
 21
1008.822195407039
 31
0.0
  0
LINE
  5
7A09
  8
0
 10
158.0000008280725
 20
8.8221951066968813
 30
0.0
 11
158.00000082807239
 21
1008.822195407039
 31
0.0
  0
LINE
  5
7A0A
  8
0
 10
170.9999999999998
 20
8.8221951066968813
 30
0.0
 11
171.0
 21
1008.822195407039
 31
0.0
  0
LINE
  5
7A0B
  8
0
 10
176.0
 20
8.8221951066968813
 30
0.0
 11
176.0
 21
1008.822195106696
 31
0.0
  0
LINE
  5
7A0C
  8
0
 10
176.9999999999998
 20
8.8221951066968813
 30
0.0
 11
177.0
 21
1008.822195106696
 31
0.0
  0
LINE
  5
7A0D
  8
0
 10
186.99999999999949
 20
8.8221951066968813
 30
0.0
 11
187.0
 21
1008.822195106696
 31
0.0
  0
LINE
  5
7A0E
  8
0
 10
196.99999999999969
 20
8.8221951066968813
 30
0.0
 11
197.0
 21
1008.822195106696
 31
0.0
  0
LINE
  5
7A0F
  8
0
 10
205.0
 20
8.8221951066968813
 30
0.0
 11
205.0
 21
1008.821935032933
 31
0.0
  0
LINE
  5
7A10
  8
0
 10
213.0
 20
8.8221951066968813
 30
0.0
 11
213.0
 21
1008.821935032933
 31
0.0
  0
LINE
  5
7A11
  8
0
 10
220.9999999999998
 20
8.8221951066969346
 30
0.0
 11
221.0
 21
1008.821935032933
 31
0.0
  0
LINE
  5
7A12
  8
0
 10
225.9999999999998
 20
8.8221951066969346
 30
0.0
 11
226.0
 21
1008.821935032933
 31
0.0
  0
LINE
  5
7A13
  8
0
 10
230.9999999999996
 20
8.8221951066969346
 30
0.0
 11
231.0
 21
1008.822195106696
 31
0.0
  0
LINE
  5
7A14
  8
0
 10
241.00000000000011
 20
8.8221951066969346
 30
0.0
 11
241.0
 21
1008.822195106696
 31
0.0
  0
LINE
  5
7A16
  8
0
 10
251.0000000000002
 20
8.8221951066969346
 30
0.0
 11
251.0
 21
1008.822195106696
 31
0.0
  0
LINE
  5
7A17
  8
0
 10
256.0
 20
8.8221951066969346
 30
0.0
 11
256.0
 21
1008.822195106696
 31
0.0
  0
LINE
  5
7A18
  8
0
 10
261.00000000000023
 20
8.8221951066969346
 30
0.0
 11
261.0
 21
1008.822195106696
 31
0.0
  0
TEXT
  5
7A19
  8
0
 10
15.66375644037301
 20
817.82219510669665
 30
0.0
 40
2.0
  1
19
 72
     2
 11
18.330423107039682
 21
818.82219510669665
 31
0.0
 73
     2
  0
LINE
  5
7A1A
  8
0
 10
10.0
 20
808.82219510669677
 30
0.0
 11
13.0
 21
808.82219510669677
 31
0.0
  0
LINE
  5
7A1B
  8
0
 10
10.0
 20
809.82219510669665
 30
0.0
 11
11.0
 21
809.82219510669665
 31
0.0
  0
LINE
  5
7A1C
  8
0
 10
10.0
 20
818.82219510669665
 30
0.0
 11
13.0
 21
818.82219510669665
 31
0.0
  0
LINE
  5
7A1D
  8
0
 10
10.0
 20
817.82219510669677
 30
0.0
 11
11.0
 21
817.82219510669677
 31
0.0
  0
LINE
  5
7A1E
  8
0
 10
10.0
 20
816.82219510669677
 30
0.0
 11
11.0
 21
816.82219510669677
 31
0.0
  0
LINE
  5
7A1F
  8
0
 10
10.0
 20
815.82219510669677
 30
0.0
 11
11.0
 21
815.82219510669677
 31
0.0
  0
LINE
  5
7A20
  8
0
 10
10.0
 20
814.82219510669654
 30
0.0
 11
11.0
 21
814.82219510669654
 31
0.0
  0
LINE
  5
7A21
  8
0
 10
10.0
 20
813.82219510669654
 30
0.0
 11
12.0
 21
813.82219510669654
 31
0.0
  0
LINE
  5
7A22
  8
0
 10
10.0
 20
810.82219510669654
 30
0.0
 11
11.0
 21
810.82219510669654
 31
0.0
  0
LINE
  5
7A23
  8
0
 10
10.0
 20
811.82219510669654
 30
0.0
 11
11.0
 21
811.82219510669654
 31
0.0
  0
LINE
  5
7A24
  8
0
 10
10.0
 20
812.82219510669654
 30
0.0
 11
11.0
 21
812.82219510669654
 31
0.0
  0
TEXT
  5
7A25
  8
0
 10
15.33042310703968
 20
807.82219510669677
 30
0.0
 40
2.0
  1
20
 72
     2
 11
18.330423107039682
 21
808.82219510669677
 31
0.0
 73
     2
  0
LINE
  5
7A26
  8
0
 10
10.0
 20
827.82219510669654
 30
0.0
 11
11.0
 21
827.82219510669654
 31
0.0
  0
LINE
  5
7A27
  8
0
 10
10.0
 20
826.82219510669665
 30
0.0
 11
11.0
 21
826.82219510669665
 31
0.0
  0
LINE
  5
7A28
  8
0
 10
10.0
 20
825.82219510669677
 30
0.0
 11
11.0
 21
825.82219510669677
 31
0.0
  0
LINE
  5
7A29
  8
0
 10
10.0
 20
824.82219510669677
 30
0.0
 11
11.0
 21
824.82219510669677
 31
0.0
  0
LINE
  5
7A2A
  8
0
 10
10.0
 20
821.82219510669654
 30
0.0
 11
11.0
 21
821.82219510669654
 31
0.0
  0
LINE
  5
7A2B
  8
0
 10
10.0
 20
822.82219510669654
 30
0.0
 11
11.0
 21
822.82219510669654
 31
0.0
  0
LINE
  5
7A2C
  8
0
 10
10.0
 20
823.82219510669677
 30
0.0
 11
12.0
 21
823.82219510669677
 31
0.0
  0
LINE
  5
7A2D
  8
0
 10
10.0
 20
819.82219510669654
 30
0.0
 11
11.0
 21
819.82219510669654
 31
0.0
  0
LINE
  5
7A2E
  8
0
 10
10.0
 20
820.82219510669654
 30
0.0
 11
11.0
 21
820.82219510669654
 31
0.0
  0
LINE
  5
7A2F
  8
0
 10
10.0
 20
828.82219510669654
 30
0.0
 11
13.0
 21
828.82219510669654
 31
0.0
  0
LINE
  5
7A30
  8
0
 10
10.0
 20
830.82219510669654
 30
0.0
 11
11.0
 21
830.82219510669654
 31
0.0
  0
LINE
  5
7A31
  8
0
 10
10.0
 20
831.82219510669654
 30
0.0
 11
11.0
 21
831.82219510669654
 31
0.0
  0
LINE
  5
7A32
  8
0
 10
10.0
 20
835.82219510669654
 30
0.0
 11
11.0
 21
835.82219510669654
 31
0.0
  0
LINE
  5
7A33
  8
0
 10
10.0
 20
834.82219510669665
 30
0.0
 11
11.0
 21
834.82219510669665
 31
0.0
  0
LINE
  5
7A34
  8
0
 10
10.0
 20
832.82219510669677
 30
0.0
 11
11.0
 21
832.82219510669677
 31
0.0
  0
LINE
  5
7A35
  8
0
 10
10.0
 20
833.82219510669677
 30
0.0
 11
12.0
 21
833.82219510669677
 31
0.0
  0
LINE
  5
7A36
  8
0
 10
10.0
 20
829.82219510669654
 30
0.0
 11
11.0
 21
829.82219510669654
 31
0.0
  0
TEXT
  5
7A37
  8
0
 10
15.66375644037301
 20
827.82219510669654
 30
0.0
 40
2.0
  1
18
 72
     2
 11
18.330423107039682
 21
828.82219510669654
 31
0.0
 73
     2
  0
LINE
  5
7A38
  8
0
 10
10.0
 20
838.82219510669654
 30
0.0
 11
13.0
 21
838.82219510669654
 31
0.0
  0
LINE
  5
7A39
  8
0
 10
10.0
 20
839.82219510669654
 30
0.0
 11
11.0
 21
839.82219510669654
 31
0.0
  0
LINE
  5
7A3A
  8
0
 10
10.0
 20
840.82219510669677
 30
0.0
 11
11.0
 21
840.82219510669677
 31
0.0
  0
LINE
  5
7A3B
  8
0
 10
10.0
 20
841.82219510669677
 30
0.0
 11
11.0
 21
841.82219510669677
 31
0.0
  0
LINE
  5
7A3C
  8
0
 10
10.0
 20
842.82219510669677
 30
0.0
 11
11.0
 21
842.82219510669677
 31
0.0
  0
LINE
  5
7A3D
  8
0
 10
10.0
 20
844.82219510669654
 30
0.0
 11
11.0
 21
844.82219510669654
 31
0.0
  0
LINE
  5
7A3E
  8
0
 10
10.0
 20
843.82219510669665
 30
0.0
 11
12.0
 21
843.82219510669665
 31
0.0
  0
LINE
  5
7A3F
  8
0
 10
10.0
 20
837.82219510669654
 30
0.0
 11
11.0
 21
837.82219510669654
 31
0.0
  0
LINE
  5
7A40
  8
0
 10
10.0
 20
836.82219510669654
 30
0.0
 11
11.0
 21
836.82219510669654
 31
0.0
  0
LINE
  5
7A41
  8
0
 10
10.0
 20
848.82219510669677
 30
0.0
 11
13.0
 21
848.82219510669677
 31
0.0
  0
LINE
  5
7A42
  8
0
 10
10.0
 20
847.82219510669654
 30
0.0
 11
11.0
 21
847.82219510669654
 31
0.0
  0
LINE
  5
7A43
  8
0
 10
10.0
 20
846.82219510669654
 30
0.0
 11
11.0
 21
846.82219510669654
 31
0.0
  0
LINE
  5
7A44
  8
0
 10
10.0
 20
849.82219510669677
 30
0.0
 11
11.0
 21
849.82219510669677
 31
0.0
  0
LINE
  5
7A45
  8
0
 10
10.0
 20
850.82219510669677
 30
0.0
 11
11.0
 21
850.82219510669677
 31
0.0
  0
LINE
  5
7A46
  8
0
 10
10.0
 20
851.82219510669665
 30
0.0
 11
11.0
 21
851.82219510669665
 31
0.0
  0
LINE
  5
7A47
  8
0
 10
10.0
 20
852.82219510669654
 30
0.0
 11
11.0
 21
852.82219510669654
 31
0.0
  0
LINE
  5
7A48
  8
0
 10
10.0
 20
853.82219510669654
 30
0.0
 11
12.0
 21
853.82219510669654
 31
0.0
  0
LINE
  5
7A49
  8
0
 10
10.0
 20
845.82219510669654
 30
0.0
 11
11.0
 21
845.82219510669654
 31
0.0
  0
TEXT
  5
7A4A
  8
0
 10
15.66375644037301
 20
837.82219510669654
 30
0.0
 40
2.0
  1
17
 72
     2
 11
18.330423107039682
 21
838.82219510669654
 31
0.0
 73
     2
  0
TEXT
  5
7A4B
  8
0
 10
15.66375644037301
 20
847.82219510669665
 30
0.0
 40
2.0
  1
16
 72
     2
 11
18.330423107039682
 21
848.82219510669677
 31
0.0
 73
     2
  0
LINE
  5
7A4C
  8
0
 10
10.0
 20
858.82219510669677
 30
0.0
 11
13.0
 21
858.82219510669677
 31
0.0
  0
LINE
  5
7A4D
  8
0
 10
10.0
 20
862.82219510669654
 30
0.0
 11
11.0
 21
862.82219510669654
 31
0.0
  0
LINE
  5
7A4E
  8
0
 10
10.0
 20
857.82219510669677
 30
0.0
 11
11.0
 21
857.82219510669677
 31
0.0
  0
LINE
  5
7A4F
  8
0
 10
10.0
 20
856.82219510669677
 30
0.0
 11
11.0
 21
856.82219510669677
 31
0.0
  0
LINE
  5
7A50
  8
0
 10
10.0
 20
855.82219510669654
 30
0.0
 11
11.0
 21
855.82219510669654
 31
0.0
  0
LINE
  5
7A51
  8
0
 10
10.0
 20
854.82219510669654
 30
0.0
 11
11.0
 21
854.82219510669654
 31
0.0
  0
LINE
  5
7A52
  8
0
 10
10.0
 20
859.82219510669665
 30
0.0
 11
11.0
 21
859.82219510669665
 31
0.0
  0
LINE
  5
7A53
  8
0
 10
10.0
 20
860.82219510669654
 30
0.0
 11
11.0
 21
860.82219510669654
 31
0.0
  0
LINE
  5
7A54
  8
0
 10
10.0
 20
861.82219510669654
 30
0.0
 11
11.0
 21
861.82219510669654
 31
0.0
  0
LINE
  5
7A55
  8
0
 10
10.0
 20
868.82219510669665
 30
0.0
 11
13.0
 21
868.82219510669665
 31
0.0
  0
LINE
  5
7A56
  8
0
 10
10.0
 20
867.82219510669677
 30
0.0
 11
11.0
 21
867.82219510669677
 31
0.0
  0
LINE
  5
7A57
  8
0
 10
10.0
 20
866.82219510669677
 30
0.0
 11
11.0
 21
866.82219510669677
 31
0.0
  0
LINE
  5
7A58
  8
0
 10
10.0
 20
865.82219510669677
 30
0.0
 11
11.0
 21
865.82219510669677
 31
0.0
  0
LINE
  5
7A59
  8
0
 10
10.0
 20
864.82219510669654
 30
0.0
 11
11.0
 21
864.82219510669654
 31
0.0
  0
LINE
  5
7A5A
  8
0
 10
10.0
 20
869.82219510669654
 30
0.0
 11
11.0
 21
869.82219510669654
 31
0.0
  0
LINE
  5
7A5B
  8
0
 10
10.0
 20
870.82219510669654
 30
0.0
 11
11.0
 21
870.82219510669654
 31
0.0
  0
LINE
  5
7A5C
  8
0
 10
10.0
 20
863.82219510669654
 30
0.0
 11
12.0
 21
863.82219510669654
 31
0.0
  0
TEXT
  5
7A5D
  8
0
 10
15.66375644037301
 20
857.82219510669677
 30
0.0
 40
2.0
  1
15
 72
     2
 11
18.330423107039682
 21
858.82219510669677
 31
0.0
 73
     2
  0
TEXT
  5
7A5E
  8
0
 10
15.66375644037301
 20
867.82219510669665
 30
0.0
 40
2.0
  1
14
 72
     2
 11
18.330423107039682
 21
868.82219510669665
 31
0.0
 73
     2
  0
TEXT
  5
7A5F
  8
0
 10
15.66375644037301
 20
887.82219510669654
 30
0.0
 40
2.0
  1
12
 72
     2
 11
18.330423107039682
 21
888.82219510669654
 31
0.0
 73
     2
  0
LINE
  5
7A60
  8
0
 10
10.0
 20
878.82219510669654
 30
0.0
 11
13.0
 21
878.82219510669654
 31
0.0
  0
LINE
  5
7A61
  8
0
 10
10.0
 20
879.82219510669654
 30
0.0
 11
11.0
 21
879.82219510669654
 31
0.0
  0
LINE
  5
7A62
  8
0
 10
10.0
 20
874.82219510669677
 30
0.0
 11
11.0
 21
874.82219510669677
 31
0.0
  0
LINE
  5
7A63
  8
0
 10
10.0
 20
871.82219510669654
 30
0.0
 11
11.0
 21
871.82219510669654
 31
0.0
  0
LINE
  5
7A64
  8
0
 10
10.0
 20
872.82219510669654
 30
0.0
 11
11.0
 21
872.82219510669654
 31
0.0
  0
LINE
  5
7A65
  8
0
 10
10.0
 20
877.82219510669654
 30
0.0
 11
11.0
 21
877.82219510669654
 31
0.0
  0
LINE
  5
7A66
  8
0
 10
10.0
 20
876.82219510669665
 30
0.0
 11
11.0
 21
876.82219510669665
 31
0.0
  0
LINE
  5
7A67
  8
0
 10
10.0
 20
875.82219510669677
 30
0.0
 11
11.0
 21
875.82219510669677
 31
0.0
  0
LINE
  5
7A68
  8
0
 10
10.0
 20
873.82219510669677
 30
0.0
 11
12.0
 21
873.82219510669677
 31
0.0
  0
LINE
  5
7A69
  8
0
 10
10.0
 20
888.82219510669654
 30
0.0
 11
13.0
 21
888.82219510669654
 31
0.0
  0
LINE
  5
7A6A
  8
0
 10
10.0
 20
887.82219510669654
 30
0.0
 11
11.0
 21
887.82219510669654
 31
0.0
  0
LINE
  5
7A6B
  8
0
 10
10.0
 20
885.82219510669654
 30
0.0
 11
11.0
 21
885.82219510669654
 31
0.0
  0
LINE
  5
7A6C
  8
0
 10
10.0
 20
884.82219510669665
 30
0.0
 11
11.0
 21
884.82219510669665
 31
0.0
  0
LINE
  5
7A6D
  8
0
 10
10.0
 20
880.82219510669654
 30
0.0
 11
11.0
 21
880.82219510669654
 31
0.0
  0
LINE
  5
7A6E
  8
0
 10
10.0
 20
881.82219510669677
 30
0.0
 11
11.0
 21
881.82219510669677
 31
0.0
  0
LINE
  5
7A6F
  8
0
 10
10.0
 20
882.82219510669677
 30
0.0
 11
11.0
 21
882.82219510669677
 31
0.0
  0
LINE
  5
7A70
  8
0
 10
10.0
 20
886.82219510669654
 30
0.0
 11
11.0
 21
886.82219510669654
 31
0.0
  0
LINE
  5
7A71
  8
0
 10
10.0
 20
883.82219510669677
 30
0.0
 11
12.0
 21
883.82219510669677
 31
0.0
  0
TEXT
  5
7A72
  8
0
 10
15.66375644037301
 20
877.82219510669654
 30
0.0
 40
2.0
  1
13
 72
     2
 11
18.330423107039682
 21
878.82219510669654
 31
0.0
 73
     2
  0
LINE
  5
7A73
  8
0
 10
10.0
 20
895.82219510669654
 30
0.0
 11
11.0
 21
895.82219510669654
 31
0.0
  0
LINE
  5
7A74
  8
0
 10
10.0
 20
896.82219510669654
 30
0.0
 11
11.0
 21
896.82219510669654
 31
0.0
  0
LINE
  5
7A75
  8
0
 10
10.0
 20
894.82219510669654
 30
0.0
 11
11.0
 21
894.82219510669654
 31
0.0
  0
LINE
  5
7A76
  8
0
 10
10.0
 20
889.82219510669654
 30
0.0
 11
11.0
 21
889.82219510669654
 31
0.0
  0
LINE
  5
7A77
  8
0
 10
10.0
 20
890.82219510669677
 30
0.0
 11
11.0
 21
890.82219510669677
 31
0.0
  0
LINE
  5
7A78
  8
0
 10
10.0
 20
891.82219510669677
 30
0.0
 11
11.0
 21
891.82219510669677
 31
0.0
  0
LINE
  5
7A79
  8
0
 10
10.0
 20
892.82219510669677
 30
0.0
 11
11.0
 21
892.82219510669677
 31
0.0
  0
LINE
  5
7A7A
  8
0
 10
10.0
 20
893.82219510669665
 30
0.0
 11
12.0
 21
893.82219510669665
 31
0.0
  0
LINE
  5
7A7B
  8
0
 10
10.0
 20
898.82219510669677
 30
0.0
 11
13.0
 21
898.82219510669677
 31
0.0
  0
LINE
  5
7A7C
  8
0
 10
10.0
 20
904.82219510669654
 30
0.0
 11
11.0
 21
904.82219510669654
 31
0.0
  0
LINE
  5
7A7D
  8
0
 10
10.0
 20
905.82219510669654
 30
0.0
 11
11.0
 21
905.82219510669654
 31
0.0
  0
LINE
  5
7A7E
  8
0
 10
10.0
 20
903.82219510669654
 30
0.0
 11
12.0
 21
903.82219510669654
 31
0.0
  0
LINE
  5
7A7F
  8
0
 10
10.0
 20
897.82219510669654
 30
0.0
 11
11.0
 21
897.82219510669654
 31
0.0
  0
LINE
  5
7A80
  8
0
 10
10.0
 20
902.82219510669654
 30
0.0
 11
11.0
 21
902.82219510669654
 31
0.0
  0
LINE
  5
7A81
  8
0
 10
10.0
 20
901.82219510669665
 30
0.0
 11
11.0
 21
901.82219510669665
 31
0.0
  0
LINE
  5
7A82
  8
0
 10
10.0
 20
900.82219510669677
 30
0.0
 11
11.0
 21
900.82219510669677
 31
0.0
  0
LINE
  5
7A83
  8
0
 10
10.0
 20
899.82219510669677
 30
0.0
 11
11.0
 21
899.82219510669677
 31
0.0
  0
TEXT
  5
7A84
  8
0
 10
16.330423107039682
 20
897.82219510669677
 30
0.0
 40
2.0
  1
11
 72
     2
 11
18.330423107039682
 21
898.82219510669677
 31
0.0
 73
     2
  0
LINE
  5
7A85
  8
0
 10
10.0
 20
906.82219510669654
 30
0.0
 11
11.0
 21
906.82219510669654
 31
0.0
  0
LINE
  5
7A86
  8
0
 10
10.0
 20
907.82219510669643
 30
0.0
 11
11.0
 21
907.82219510669643
 31
0.0
  0
LINE
  5
7A87
  8
0
 10
10.0
 20
712.82219510669654
 30
0.0
 11
11.0
 21
712.82219510669654
 31
0.0
  0
LINE
  5
7A88
  8
0
 10
10.0
 20
711.82219510669654
 30
0.0
 11
11.0
 21
711.82219510669654
 31
0.0
  0
LINE
  5
7A89
  8
0
 10
10.0
 20
710.82219510669654
 30
0.0
 11
11.0
 21
710.82219510669654
 31
0.0
  0
LINE
  5
7A8A
  8
0
 10
10.0
 20
713.82219510669665
 30
0.0
 11
12.0
 21
713.82219510669665
 31
0.0
  0
LINE
  5
7A8B
  8
0
 10
10.0
 20
709.82219510669665
 30
0.0
 11
11.0
 21
709.82219510669665
 31
0.0
  0
LINE
  5
7A8C
  8
0
 10
10.0
 20
718.82219510669654
 30
0.0
 11
13.0
 21
718.82219510669654
 31
0.0
  0
LINE
  5
7A8D
  8
0
 10
10.0
 20
720.82219510669654
 30
0.0
 11
11.0
 21
720.82219510669654
 31
0.0
  0
LINE
  5
7A8E
  8
0
 10
10.0
 20
719.82219510669654
 30
0.0
 11
11.0
 21
719.82219510669654
 31
0.0
  0
LINE
  5
7A8F
  8
0
 10
10.0
 20
722.82219510669654
 30
0.0
 11
11.0
 21
722.82219510669654
 31
0.0
  0
LINE
  5
7A90
  8
0
 10
10.0
 20
721.82219510669677
 30
0.0
 11
11.0
 21
721.82219510669677
 31
0.0
  0
LINE
  5
7A91
  8
0
 10
10.0
 20
714.82219510669654
 30
0.0
 11
11.0
 21
714.82219510669654
 31
0.0
  0
LINE
  5
7A92
  8
0
 10
10.0
 20
715.82219510669654
 30
0.0
 11
11.0
 21
715.82219510669654
 31
0.0
  0
LINE
  5
7A93
  8
0
 10
10.0
 20
716.82219510669654
 30
0.0
 11
11.0
 21
716.82219510669654
 31
0.0
  0
LINE
  5
7A94
  8
0
 10
10.0
 20
717.82219510669677
 30
0.0
 11
11.0
 21
717.82219510669677
 31
0.0
  0
LINE
  5
7A95
  8
0
 10
10.0
 20
728.82219510669654
 30
0.0
 11
13.0
 21
728.82219510669654
 31
0.0
  0
LINE
  5
7A96
  8
0
 10
10.0
 20
729.82219510669654
 30
0.0
 11
11.0
 21
729.82219510669654
 31
0.0
  0
LINE
  5
7A97
  8
0
 10
10.0
 20
731.82219510669654
 30
0.0
 11
11.0
 21
731.82219510669654
 31
0.0
  0
LINE
  5
7A98
  8
0
 10
10.0
 20
730.82219510669665
 30
0.0
 11
11.0
 21
730.82219510669665
 31
0.0
  0
LINE
  5
7A99
  8
0
 10
10.0
 20
723.82219510669654
 30
0.0
 11
12.0
 21
723.82219510669654
 31
0.0
  0
LINE
  5
7A9A
  8
0
 10
10.0
 20
724.82219510669654
 30
0.0
 11
11.0
 21
724.82219510669654
 31
0.0
  0
LINE
  5
7A9B
  8
0
 10
10.0
 20
725.82219510669677
 30
0.0
 11
11.0
 21
725.82219510669677
 31
0.0
  0
LINE
  5
7A9C
  8
0
 10
10.0
 20
726.82219510669654
 30
0.0
 11
11.0
 21
726.82219510669654
 31
0.0
  0
LINE
  5
7A9D
  8
0
 10
10.0
 20
727.82219510669654
 30
0.0
 11
11.0
 21
727.82219510669654
 31
0.0
  0
TEXT
  5
7A9E
  8
0
 10
14.997089773706341
 20
717.82219510669654
 30
0.0
 40
2.0
  1
29
 72
     2
 11
18.330423107039682
 21
718.82219510669654
 31
0.0
 73
     2
  0
TEXT
  5
7A9F
  8
0
 10
14.997089773706341
 20
727.82219510669654
 30
0.0
 40
2.0
  1
28
 72
     2
 11
18.330423107039682
 21
728.82219510669654
 31
0.0
 73
     2
  0
TEXT
  5
7AA0
  8
0
 10
14.997089773706341
 20
747.82219510669654
 30
0.0
 40
2.0
  1
26
 72
     2
 11
18.330423107039682
 21
748.82219510669654
 31
0.0
 73
     2
  0
LINE
  5
7AA1
  8
0
 10
10.0
 20
738.82219510669665
 30
0.0
 11
13.0
 21
738.82219510669665
 31
0.0
  0
LINE
  5
7AA2
  8
0
 10
10.0
 20
733.82219510669654
 30
0.0
 11
12.0
 21
733.82219510669654
 31
0.0
  0
LINE
  5
7AA3
  8
0
 10
10.0
 20
732.82219510669654
 30
0.0
 11
11.0
 21
732.82219510669654
 31
0.0
  0
LINE
  5
7AA4
  8
0
 10
10.0
 20
734.82219510669665
 30
0.0
 11
11.0
 21
734.82219510669665
 31
0.0
  0
LINE
  5
7AA5
  8
0
 10
10.0
 20
735.82219510669654
 30
0.0
 11
11.0
 21
735.82219510669654
 31
0.0
  0
LINE
  5
7AA6
  8
0
 10
10.0
 20
736.82219510669654
 30
0.0
 11
11.0
 21
736.82219510669654
 31
0.0
  0
LINE
  5
7AA7
  8
0
 10
10.0
 20
737.82219510669654
 30
0.0
 11
11.0
 21
737.82219510669654
 31
0.0
  0
LINE
  5
7AA8
  8
0
 10
10.0
 20
740.82219510669654
 30
0.0
 11
11.0
 21
740.82219510669654
 31
0.0
  0
LINE
  5
7AA9
  8
0
 10
10.0
 20
739.82219510669654
 30
0.0
 11
11.0
 21
739.82219510669654
 31
0.0
  0
LINE
  5
7AAA
  8
0
 10
10.0
 20
748.82219510669654
 30
0.0
 11
13.0
 21
748.82219510669654
 31
0.0
  0
LINE
  5
7AAB
  8
0
 10
10.0
 20
745.82219510669654
 30
0.0
 11
11.0
 21
745.82219510669654
 31
0.0
  0
LINE
  5
7AAC
  8
0
 10
10.0
 20
746.82219510669677
 30
0.0
 11
11.0
 21
746.82219510669677
 31
0.0
  0
LINE
  5
7AAD
  8
0
 10
10.0
 20
747.82219510669654
 30
0.0
 11
11.0
 21
747.82219510669654
 31
0.0
  0
LINE
  5
7AAE
  8
0
 10
10.0
 20
743.82219510669654
 30
0.0
 11
12.0
 21
743.82219510669654
 31
0.0
  0
LINE
  5
7AAF
  8
0
 10
10.0
 20
744.82219510669654
 30
0.0
 11
11.0
 21
744.82219510669654
 31
0.0
  0
LINE
  5
7AB0
  8
0
 10
10.0
 20
742.82219510669677
 30
0.0
 11
11.0
 21
742.82219510669677
 31
0.0
  0
LINE
  5
7AB1
  8
0
 10
10.0
 20
741.82219510669654
 30
0.0
 11
11.0
 21
741.82219510669654
 31
0.0
  0
TEXT
  5
7AB2
  8
0
 10
14.99708977370635
 20
737.82219510669677
 30
0.0
 40
2.0
  1
27
 72
     2
 11
18.330423107039682
 21
738.82219510669665
 31
0.0
 73
     2
  0
LINE
  5
7AB3
  8
0
 10
10.0
 20
754.82219510669654
 30
0.0
 11
11.0
 21
754.82219510669654
 31
0.0
  0
LINE
  5
7AB4
  8
0
 10
10.0
 20
755.82219510669665
 30
0.0
 11
11.0
 21
755.82219510669665
 31
0.0
  0
LINE
  5
7AB5
  8
0
 10
10.0
 20
756.82219510669654
 30
0.0
 11
11.0
 21
756.82219510669654
 31
0.0
  0
LINE
  5
7AB6
  8
0
 10
10.0
 20
757.82219510669654
 30
0.0
 11
11.0
 21
757.82219510669654
 31
0.0
  0
LINE
  5
7AB7
  8
0
 10
10.0
 20
753.82219510669654
 30
0.0
 11
12.0
 21
753.82219510669654
 31
0.0
  0
LINE
  5
7AB8
  8
0
 10
10.0
 20
752.82219510669654
 30
0.0
 11
11.0
 21
752.82219510669654
 31
0.0
  0
LINE
  5
7AB9
  8
0
 10
10.0
 20
751.82219510669654
 30
0.0
 11
11.0
 21
751.82219510669654
 31
0.0
  0
LINE
  5
7ABA
  8
0
 10
10.0
 20
750.82219510669677
 30
0.0
 11
11.0
 21
750.82219510669677
 31
0.0
  0
LINE
  5
7ABB
  8
0
 10
10.0
 20
749.82219510669654
 30
0.0
 11
11.0
 21
749.82219510669654
 31
0.0
  0
LINE
  5
7ABC
  8
0
 10
10.0
 20
758.82219510669654
 30
0.0
 11
13.0
 21
758.82219510669654
 31
0.0
  0
LINE
  5
7ABD
  8
0
 10
10.0
 20
763.82219510669665
 30
0.0
 11
12.0
 21
763.82219510669665
 31
0.0
  0
LINE
  5
7ABE
  8
0
 10
10.0
 20
764.82219510669654
 30
0.0
 11
11.0
 21
764.82219510669654
 31
0.0
  0
LINE
  5
7ABF
  8
0
 10
10.0
 20
765.82219510669654
 30
0.0
 11
11.0
 21
765.82219510669654
 31
0.0
  0
LINE
  5
7AC0
  8
0
 10
10.0
 20
766.82219510669654
 30
0.0
 11
11.0
 21
766.82219510669654
 31
0.0
  0
LINE
  5
7AC1
  8
0
 10
10.0
 20
761.82219510669654
 30
0.0
 11
11.0
 21
761.82219510669654
 31
0.0
  0
LINE
  5
7AC2
  8
0
 10
10.0
 20
760.82219510669654
 30
0.0
 11
11.0
 21
760.82219510669654
 31
0.0
  0
LINE
  5
7AC3
  8
0
 10
10.0
 20
759.82219510669665
 30
0.0
 11
11.0
 21
759.82219510669665
 31
0.0
  0
LINE
  5
7AC4
  8
0
 10
10.0
 20
762.82219510669654
 30
0.0
 11
11.0
 21
762.82219510669654
 31
0.0
  0
TEXT
  5
7AC5
  8
0
 10
14.997089773706341
 20
757.82219510669654
 30
0.0
 40
2.0
  1
25
 72
     2
 11
18.330423107039682
 21
758.82219510669654
 31
0.0
 73
     2
  0
LINE
  5
7AC6
  8
0
 10
10.0
 20
768.82219510669654
 30
0.0
 11
13.0
 21
768.82219510669654
 31
0.0
  0
LINE
  5
7AC7
  8
0
 10
10.0
 20
773.82219510669654
 30
0.0
 11
12.0
 21
773.82219510669654
 31
0.0
  0
LINE
  5
7AC8
  8
0
 10
10.0
 20
772.82219510669654
 30
0.0
 11
11.0
 21
772.82219510669654
 31
0.0
  0
LINE
  5
7AC9
  8
0
 10
10.0
 20
771.82219510669677
 30
0.0
 11
11.0
 21
771.82219510669677
 31
0.0
  0
LINE
  5
7ACA
  8
0
 10
10.0
 20
774.82219510669654
 30
0.0
 11
11.0
 21
774.82219510669654
 31
0.0
  0
LINE
  5
7ACB
  8
0
 10
10.0
 20
770.82219510669654
 30
0.0
 11
11.0
 21
770.82219510669654
 31
0.0
  0
LINE
  5
7ACC
  8
0
 10
10.0
 20
769.82219510669654
 30
0.0
 11
11.0
 21
769.82219510669654
 31
0.0
  0
LINE
  5
7ACD
  8
0
 10
10.0
 20
767.82219510669677
 30
0.0
 11
11.0
 21
767.82219510669677
 31
0.0
  0
LINE
  5
7ACE
  8
0
 10
10.0
 20
778.82219510669654
 30
0.0
 11
13.0
 21
778.82219510669654
 31
0.0
  0
LINE
  5
7ACF
  8
0
 10
10.0
 20
783.82219510669654
 30
0.0
 11
12.0
 21
783.82219510669654
 31
0.0
  0
LINE
  5
7AD0
  8
0
 10
10.0
 20
782.82219510669654
 30
0.0
 11
11.0
 21
782.82219510669654
 31
0.0
  0
LINE
  5
7AD1
  8
0
 10
10.0
 20
781.82219510669654
 30
0.0
 11
11.0
 21
781.82219510669654
 31
0.0
  0
LINE
  5
7AD2
  8
0
 10
10.0
 20
780.82219510669665
 30
0.0
 11
11.0
 21
780.82219510669665
 31
0.0
  0
LINE
  5
7AD3
  8
0
 10
10.0
 20
775.82219510669677
 30
0.0
 11
11.0
 21
775.82219510669677
 31
0.0
  0
LINE
  5
7AD4
  8
0
 10
10.0
 20
776.82219510669654
 30
0.0
 11
11.0
 21
776.82219510669654
 31
0.0
  0
LINE
  5
7AD5
  8
0
 10
10.0
 20
777.82219510669654
 30
0.0
 11
11.0
 21
777.82219510669654
 31
0.0
  0
LINE
  5
7AD6
  8
0
 10
10.0
 20
779.82219510669677
 30
0.0
 11
11.0
 21
779.82219510669677
 31
0.0
  0
TEXT
  5
7AD7
  8
0
 10
14.99708977370635
 20
767.82219510669654
 30
0.0
 40
2.0
  1
24
 72
     2
 11
18.330423107039682
 21
768.82219510669654
 31
0.0
 73
     2
  0
TEXT
  5
7AD8
  8
0
 10
14.997089773706341
 20
777.82219510669654
 30
0.0
 40
2.0
  1
23
 72
     2
 11
18.330423107039682
 21
778.82219510669654
 31
0.0
 73
     2
  0
LINE
  5
7AD9
  8
0
 10
10.0
 20
788.82219510669665
 30
0.0
 11
13.0
 21
788.82219510669665
 31
0.0
  0
LINE
  5
7ADA
  8
0
 10
10.0
 20
792.82219510669677
 30
0.0
 11
11.0
 21
792.82219510669677
 31
0.0
  0
LINE
  5
7ADB
  8
0
 10
10.0
 20
791.82219510669654
 30
0.0
 11
11.0
 21
791.82219510669654
 31
0.0
  0
LINE
  5
7ADC
  8
0
 10
10.0
 20
790.82219510669654
 30
0.0
 11
11.0
 21
790.82219510669654
 31
0.0
  0
LINE
  5
7ADD
  8
0
 10
10.0
 20
789.82219510669665
 30
0.0
 11
11.0
 21
789.82219510669665
 31
0.0
  0
LINE
  5
7ADE
  8
0
 10
10.0
 20
786.82219510669654
 30
0.0
 11
11.0
 21
786.82219510669654
 31
0.0
  0
LINE
  5
7ADF
  8
0
 10
10.0
 20
784.82219510669665
 30
0.0
 11
11.0
 21
784.82219510669665
 31
0.0
  0
LINE
  5
7AE0
  8
0
 10
10.0
 20
785.82219510669654
 30
0.0
 11
11.0
 21
785.82219510669654
 31
0.0
  0
LINE
  5
7AE1
  8
0
 10
10.0
 20
787.82219510669654
 30
0.0
 11
11.0
 21
787.82219510669654
 31
0.0
  0
LINE
  5
7AE2
  8
0
 10
10.0
 20
798.82219510669654
 30
0.0
 11
13.0
 21
798.82219510669654
 31
0.0
  0
LINE
  5
7AE3
  8
0
 10
10.0
 20
799.82219510669654
 30
0.0
 11
11.0
 21
799.82219510669654
 31
0.0
  0
LINE
  5
7AE4
  8
0
 10
10.0
 20
800.82219510669677
 30
0.0
 11
11.0
 21
800.82219510669677
 31
0.0
  0
LINE
  5
7AE5
  8
0
 10
10.0
 20
801.82219510669665
 30
0.0
 11
11.0
 21
801.82219510669665
 31
0.0
  0
LINE
  5
7AE6
  8
0
 10
10.0
 20
797.82219510669654
 30
0.0
 11
11.0
 21
797.82219510669654
 31
0.0
  0
LINE
  5
7AE7
  8
0
 10
10.0
 20
793.82219510669654
 30
0.0
 11
12.0
 21
793.82219510669654
 31
0.0
  0
LINE
  5
7AE8
  8
0
 10
10.0
 20
794.82219510669654
 30
0.0
 11
11.0
 21
794.82219510669654
 31
0.0
  0
LINE
  5
7AE9
  8
0
 10
10.0
 20
796.82219510669677
 30
0.0
 11
11.0
 21
796.82219510669677
 31
0.0
  0
LINE
  5
7AEA
  8
0
 10
10.0
 20
795.82219510669654
 30
0.0
 11
11.0
 21
795.82219510669654
 31
0.0
  0
TEXT
  5
7AEB
  8
0
 10
14.997089773706341
 20
787.82219510669677
 30
0.0
 40
2.0
  1
22
 72
     2
 11
18.330423107039682
 21
788.82219510669665
 31
0.0
 73
     2
  0
TEXT
  5
7AEC
  8
0
 10
15.66375644037301
 20
797.82219510669654
 30
0.0
 40
2.0
  1
21
 72
     2
 11
18.330423107039682
 21
798.82219510669654
 31
0.0
 73
     2
  0
LINE
  5
7AED
  8
0
 10
10.0
 20
807.82219510669677
 30
0.0
 11
11.0
 21
807.82219510669677
 31
0.0
  0
LINE
  5
7AEE
  8
0
 10
10.0
 20
806.82219510669654
 30
0.0
 11
11.0
 21
806.82219510669654
 31
0.0
  0
LINE
  5
7AEF
  8
0
 10
10.0
 20
802.82219510669654
 30
0.0
 11
11.0
 21
802.82219510669654
 31
0.0
  0
LINE
  5
7AF0
  8
0
 10
10.0
 20
803.82219510669654
 30
0.0
 11
12.0
 21
803.82219510669654
 31
0.0
  0
LINE
  5
7AF1
  8
0
 10
10.0
 20
805.82219510669654
 30
0.0
 11
11.0
 21
805.82219510669654
 31
0.0
  0
LINE
  5
7AF2
  8
0
 10
10.0
 20
804.82219510669654
 30
0.0
 11
11.0
 21
804.82219510669654
 31
0.0
  0
LINE
  5
7AF3
  8
0
 10
288.0
 20
709.82219510669665
 30
0.0
 11
287.0
 21
709.82219510669665
 31
0.0
  0
LINE
  5
7AF4
  8
0
 10
288.0
 20
718.82219510669654
 30
0.0
 11
285.0
 21
718.82219510669654
 31
0.0
  0
LINE
  5
7AF5
  8
0
 10
288.0
 20
717.82219510669677
 30
0.0
 11
287.0
 21
717.82219510669677
 31
0.0
  0
LINE
  5
7AF6
  8
0
 10
288.0
 20
716.82219510669654
 30
0.0
 11
287.0
 21
716.82219510669654
 31
0.0
  0
LINE
  5
7AF7
  8
0
 10
288.0
 20
715.82219510669654
 30
0.0
 11
287.0
 21
715.82219510669654
 31
0.0
  0
LINE
  5
7AF8
  8
0
 10
288.0
 20
714.82219510669654
 30
0.0
 11
287.0
 21
714.82219510669654
 31
0.0
  0
LINE
  5
7AF9
  8
0
 10
288.0
 20
713.82219510669665
 30
0.0
 11
286.0
 21
713.82219510669665
 31
0.0
  0
LINE
  5
7AFA
  8
0
 10
288.0
 20
710.82219510669654
 30
0.0
 11
287.0
 21
710.82219510669654
 31
0.0
  0
LINE
  5
7AFB
  8
0
 10
288.0
 20
711.82219510669654
 30
0.0
 11
287.0
 21
711.82219510669654
 31
0.0
  0
LINE
  5
7AFC
  8
0
 10
288.0
 20
712.82219510669654
 30
0.0
 11
287.0
 21
712.82219510669654
 31
0.0
  0
LINE
  5
7AFD
  8
0
 10
288.0
 20
726.82219510669654
 30
0.0
 11
287.0
 21
726.82219510669654
 31
0.0
  0
LINE
  5
7AFE
  8
0
 10
288.0
 20
725.82219510669677
 30
0.0
 11
287.0
 21
725.82219510669677
 31
0.0
  0
LINE
  5
7AFF
  8
0
 10
288.0
 20
724.82219510669654
 30
0.0
 11
287.0
 21
724.82219510669654
 31
0.0
  0
LINE
  5
7B00
  8
0
 10
288.0
 20
723.82219510669654
 30
0.0
 11
286.0
 21
723.82219510669654
 31
0.0
  0
LINE
  5
7B01
  8
0
 10
288.0
 20
721.82219510669677
 30
0.0
 11
287.0
 21
721.82219510669677
 31
0.0
  0
LINE
  5
7B02
  8
0
 10
288.0
 20
722.82219510669654
 30
0.0
 11
287.0
 21
722.82219510669654
 31
0.0
  0
LINE
  5
7B03
  8
0
 10
288.0
 20
719.82219510669654
 30
0.0
 11
287.0
 21
719.82219510669654
 31
0.0
  0
LINE
  5
7B04
  8
0
 10
288.0
 20
720.82219510669654
 30
0.0
 11
287.0
 21
720.82219510669654
 31
0.0
  0
LINE
  5
7B05
  8
0
 10
288.0
 20
728.82219510669654
 30
0.0
 11
285.0
 21
728.82219510669654
 31
0.0
  0
LINE
  5
7B06
  8
0
 10
288.0
 20
735.82219510669654
 30
0.0
 11
287.0
 21
735.82219510669654
 31
0.0
  0
LINE
  5
7B07
  8
0
 10
288.0
 20
734.82219510669665
 30
0.0
 11
287.0
 21
734.82219510669665
 31
0.0
  0
LINE
  5
7B08
  8
0
 10
288.0
 20
732.82219510669654
 30
0.0
 11
287.0
 21
732.82219510669654
 31
0.0
  0
LINE
  5
7B09
  8
0
 10
288.0
 20
733.82219510669654
 30
0.0
 11
286.0
 21
733.82219510669654
 31
0.0
  0
LINE
  5
7B0A
  8
0
 10
288.0
 20
727.82219510669654
 30
0.0
 11
287.0
 21
727.82219510669654
 31
0.0
  0
LINE
  5
7B0B
  8
0
 10
288.0
 20
730.82219510669665
 30
0.0
 11
287.0
 21
730.82219510669665
 31
0.0
  0
LINE
  5
7B0C
  8
0
 10
288.0
 20
731.82219510669654
 30
0.0
 11
287.0
 21
731.82219510669654
 31
0.0
  0
LINE
  5
7B0D
  8
0
 10
288.0
 20
729.82219510669654
 30
0.0
 11
287.0
 21
729.82219510669654
 31
0.0
  0
LINE
  5
7B0E
  8
0
 10
288.0
 20
738.82219510669665
 30
0.0
 11
285.0
 21
738.82219510669665
 31
0.0
  0
LINE
  5
7B0F
  8
0
 10
288.0
 20
741.82219510669654
 30
0.0
 11
287.0
 21
741.82219510669654
 31
0.0
  0
LINE
  5
7B10
  8
0
 10
288.0
 20
742.82219510669677
 30
0.0
 11
287.0
 21
742.82219510669677
 31
0.0
  0
LINE
  5
7B11
  8
0
 10
288.0
 20
744.82219510669654
 30
0.0
 11
287.0
 21
744.82219510669654
 31
0.0
  0
LINE
  5
7B12
  8
0
 10
288.0
 20
743.82219510669654
 30
0.0
 11
286.0
 21
743.82219510669654
 31
0.0
  0
LINE
  5
7B13
  8
0
 10
288.0
 20
739.82219510669654
 30
0.0
 11
287.0
 21
739.82219510669654
 31
0.0
  0
LINE
  5
7B14
  8
0
 10
288.0
 20
740.82219510669654
 30
0.0
 11
287.0
 21
740.82219510669654
 31
0.0
  0
LINE
  5
7B15
  8
0
 10
288.0
 20
737.82219510669654
 30
0.0
 11
287.0
 21
737.82219510669654
 31
0.0
  0
LINE
  5
7B16
  8
0
 10
288.0
 20
736.82219510669654
 30
0.0
 11
287.0
 21
736.82219510669654
 31
0.0
  0
LINE
  5
7B17
  8
0
 10
288.0
 20
748.82219510669654
 30
0.0
 11
285.0
 21
748.82219510669654
 31
0.0
  0
LINE
  5
7B18
  8
0
 10
288.0
 20
749.82219510669654
 30
0.0
 11
287.0
 21
749.82219510669654
 31
0.0
  0
LINE
  5
7B19
  8
0
 10
288.0
 20
750.82219510669677
 30
0.0
 11
287.0
 21
750.82219510669677
 31
0.0
  0
LINE
  5
7B1A
  8
0
 10
288.0
 20
751.82219510669654
 30
0.0
 11
287.0
 21
751.82219510669654
 31
0.0
  0
LINE
  5
7B1B
  8
0
 10
288.0
 20
752.82219510669654
 30
0.0
 11
287.0
 21
752.82219510669654
 31
0.0
  0
LINE
  5
7B1C
  8
0
 10
288.0
 20
747.82219510669654
 30
0.0
 11
287.0
 21
747.82219510669654
 31
0.0
  0
LINE
  5
7B1D
  8
0
 10
288.0
 20
746.82219510669677
 30
0.0
 11
287.0
 21
746.82219510669677
 31
0.0
  0
LINE
  5
7B1E
  8
0
 10
288.0
 20
745.82219510669654
 30
0.0
 11
287.0
 21
745.82219510669654
 31
0.0
  0
LINE
  5
7B1F
  8
0
 10
288.0
 20
758.82219510669654
 30
0.0
 11
285.0
 21
758.82219510669654
 31
0.0
  0
LINE
  5
7B20
  8
0
 10
288.0
 20
759.82219510669665
 30
0.0
 11
287.0
 21
759.82219510669665
 31
0.0
  0
LINE
  5
7B21
  8
0
 10
288.0
 20
760.82219510669654
 30
0.0
 11
287.0
 21
760.82219510669654
 31
0.0
  0
LINE
  5
7B22
  8
0
 10
288.0
 20
761.82219510669654
 30
0.0
 11
287.0
 21
761.82219510669654
 31
0.0
  0
LINE
  5
7B23
  8
0
 10
288.0
 20
753.82219510669654
 30
0.0
 11
286.0
 21
753.82219510669654
 31
0.0
  0
LINE
  5
7B24
  8
0
 10
288.0
 20
757.82219510669654
 30
0.0
 11
287.0
 21
757.82219510669654
 31
0.0
  0
LINE
  5
7B25
  8
0
 10
288.0
 20
756.82219510669654
 30
0.0
 11
287.0
 21
756.82219510669654
 31
0.0
  0
LINE
  5
7B26
  8
0
 10
288.0
 20
755.82219510669665
 30
0.0
 11
287.0
 21
755.82219510669665
 31
0.0
  0
LINE
  5
7B27
  8
0
 10
288.0
 20
754.82219510669654
 30
0.0
 11
287.0
 21
754.82219510669654
 31
0.0
  0
LINE
  5
7B28
  8
0
 10
288.0
 20
768.82219510669654
 30
0.0
 11
285.0
 21
768.82219510669654
 31
0.0
  0
LINE
  5
7B29
  8
0
 10
288.0
 20
767.82219510669677
 30
0.0
 11
287.0
 21
767.82219510669677
 31
0.0
  0
LINE
  5
7B2A
  8
0
 10
288.0
 20
769.82219510669654
 30
0.0
 11
287.0
 21
769.82219510669654
 31
0.0
  0
LINE
  5
7B2B
  8
0
 10
288.0
 20
770.82219510669654
 30
0.0
 11
287.0
 21
770.82219510669654
 31
0.0
  0
LINE
  5
7B2C
  8
0
 10
288.0
 20
762.82219510669654
 30
0.0
 11
287.0
 21
762.82219510669654
 31
0.0
  0
LINE
  5
7B2D
  8
0
 10
288.0
 20
766.82219510669654
 30
0.0
 11
287.0
 21
766.82219510669654
 31
0.0
  0
LINE
  5
7B2E
  8
0
 10
288.0
 20
765.82219510669654
 30
0.0
 11
287.0
 21
765.82219510669654
 31
0.0
  0
LINE
  5
7B2F
  8
0
 10
288.0
 20
764.82219510669654
 30
0.0
 11
287.0
 21
764.82219510669654
 31
0.0
  0
LINE
  5
7B30
  8
0
 10
288.0
 20
763.82219510669665
 30
0.0
 11
286.0
 21
763.82219510669665
 31
0.0
  0
LINE
  5
7B31
  8
0
 10
288.0
 20
778.82219510669654
 30
0.0
 11
285.0
 21
778.82219510669654
 31
0.0
  0
LINE
  5
7B32
  8
0
 10
288.0
 20
779.82219510669677
 30
0.0
 11
287.0
 21
779.82219510669677
 31
0.0
  0
LINE
  5
7B33
  8
0
 10
288.0
 20
777.82219510669654
 30
0.0
 11
287.0
 21
777.82219510669654
 31
0.0
  0
LINE
  5
7B34
  8
0
 10
288.0
 20
776.82219510669654
 30
0.0
 11
287.0
 21
776.82219510669654
 31
0.0
  0
LINE
  5
7B35
  8
0
 10
288.0
 20
775.82219510669677
 30
0.0
 11
287.0
 21
775.82219510669677
 31
0.0
  0
LINE
  5
7B36
  8
0
 10
288.0
 20
774.82219510669654
 30
0.0
 11
287.0
 21
774.82219510669654
 31
0.0
  0
LINE
  5
7B37
  8
0
 10
288.0
 20
771.82219510669677
 30
0.0
 11
287.0
 21
771.82219510669677
 31
0.0
  0
LINE
  5
7B38
  8
0
 10
288.0
 20
772.82219510669654
 30
0.0
 11
287.0
 21
772.82219510669654
 31
0.0
  0
LINE
  5
7B39
  8
0
 10
288.0
 20
773.82219510669654
 30
0.0
 11
286.0
 21
773.82219510669654
 31
0.0
  0
LINE
  5
7B3A
  8
0
 10
288.0
 20
787.82219510669654
 30
0.0
 11
287.0
 21
787.82219510669654
 31
0.0
  0
LINE
  5
7B3B
  8
0
 10
288.0
 20
785.82219510669654
 30
0.0
 11
287.0
 21
785.82219510669654
 31
0.0
  0
LINE
  5
7B3C
  8
0
 10
288.0
 20
784.82219510669665
 30
0.0
 11
287.0
 21
784.82219510669665
 31
0.0
  0
LINE
  5
7B3D
  8
0
 10
288.0
 20
786.82219510669654
 30
0.0
 11
287.0
 21
786.82219510669654
 31
0.0
  0
LINE
  5
7B3E
  8
0
 10
288.0
 20
780.82219510669665
 30
0.0
 11
287.0
 21
780.82219510669665
 31
0.0
  0
LINE
  5
7B3F
  8
0
 10
288.0
 20
781.82219510669654
 30
0.0
 11
287.0
 21
781.82219510669654
 31
0.0
  0
LINE
  5
7B40
  8
0
 10
288.0
 20
782.82219510669654
 30
0.0
 11
287.0
 21
782.82219510669654
 31
0.0
  0
LINE
  5
7B41
  8
0
 10
288.0
 20
783.82219510669654
 30
0.0
 11
286.0
 21
783.82219510669654
 31
0.0
  0
LINE
  5
7B42
  8
0
 10
288.0
 20
788.82219510669665
 30
0.0
 11
285.0
 21
788.82219510669665
 31
0.0
  0
LINE
  5
7B43
  8
0
 10
288.0
 20
795.82219510669654
 30
0.0
 11
287.0
 21
795.82219510669654
 31
0.0
  0
LINE
  5
7B44
  8
0
 10
288.0
 20
796.82219510669677
 30
0.0
 11
287.0
 21
796.82219510669677
 31
0.0
  0
LINE
  5
7B45
  8
0
 10
288.0
 20
794.82219510669654
 30
0.0
 11
287.0
 21
794.82219510669654
 31
0.0
  0
LINE
  5
7B46
  8
0
 10
288.0
 20
793.82219510669654
 30
0.0
 11
286.0
 21
793.82219510669654
 31
0.0
  0
LINE
  5
7B47
  8
0
 10
288.0
 20
789.82219510669665
 30
0.0
 11
287.0
 21
789.82219510669665
 31
0.0
  0
LINE
  5
7B48
  8
0
 10
288.0
 20
790.82219510669654
 30
0.0
 11
287.0
 21
790.82219510669654
 31
0.0
  0
LINE
  5
7B49
  8
0
 10
288.0
 20
791.82219510669654
 30
0.0
 11
287.0
 21
791.82219510669654
 31
0.0
  0
LINE
  5
7B4A
  8
0
 10
288.0
 20
792.82219510669677
 30
0.0
 11
287.0
 21
792.82219510669677
 31
0.0
  0
LINE
  5
7B4B
  8
0
 10
288.0
 20
798.82219510669654
 30
0.0
 11
285.0
 21
798.82219510669654
 31
0.0
  0
LINE
  5
7B4C
  8
0
 10
288.0
 20
804.82219510669654
 30
0.0
 11
287.0
 21
804.82219510669654
 31
0.0
  0
LINE
  5
7B4D
  8
0
 10
288.0
 20
805.82219510669654
 30
0.0
 11
287.0
 21
805.82219510669654
 31
0.0
  0
LINE
  5
7B4E
  8
0
 10
288.0
 20
803.82219510669654
 30
0.0
 11
286.0
 21
803.82219510669654
 31
0.0
  0
LINE
  5
7B4F
  8
0
 10
288.0
 20
802.82219510669654
 30
0.0
 11
287.0
 21
802.82219510669654
 31
0.0
  0
LINE
  5
7B50
  8
0
 10
288.0
 20
797.82219510669654
 30
0.0
 11
287.0
 21
797.82219510669654
 31
0.0
  0
LINE
  5
7B51
  8
0
 10
288.0
 20
801.82219510669665
 30
0.0
 11
287.0
 21
801.82219510669665
 31
0.0
  0
LINE
  5
7B52
  8
0
 10
288.0
 20
800.82219510669677
 30
0.0
 11
287.0
 21
800.82219510669677
 31
0.0
  0
LINE
  5
7B53
  8
0
 10
288.0
 20
799.82219510669654
 30
0.0
 11
287.0
 21
799.82219510669654
 31
0.0
  0
LINE
  5
7B54
  8
0
 10
288.0
 20
808.82219510669677
 30
0.0
 11
285.0
 21
808.82219510669677
 31
0.0
  0
LINE
  5
7B55
  8
0
 10
288.0
 20
806.82219510669654
 30
0.0
 11
287.0
 21
806.82219510669654
 31
0.0
  0
LINE
  5
7B56
  8
0
 10
288.0
 20
807.82219510669677
 30
0.0
 11
287.0
 21
807.82219510669677
 31
0.0
  0
LINE
  5
7B57
  8
0
 10
288.0
 20
812.82219510669654
 30
0.0
 11
287.0
 21
812.82219510669654
 31
0.0
  0
LINE
  5
7B58
  8
0
 10
288.0
 20
811.82219510669654
 30
0.0
 11
287.0
 21
811.82219510669654
 31
0.0
  0
LINE
  5
7B59
  8
0
 10
288.0
 20
810.82219510669654
 30
0.0
 11
287.0
 21
810.82219510669654
 31
0.0
  0
LINE
  5
7B5A
  8
0
 10
288.0
 20
813.82219510669654
 30
0.0
 11
286.0
 21
813.82219510669654
 31
0.0
  0
LINE
  5
7B5B
  8
0
 10
288.0
 20
809.82219510669665
 30
0.0
 11
287.0
 21
809.82219510669665
 31
0.0
  0
LINE
  5
7B5C
  8
0
 10
288.0
 20
818.82219510669665
 30
0.0
 11
285.0
 21
818.82219510669665
 31
0.0
  0
LINE
  5
7B5D
  8
0
 10
288.0
 20
820.82219510669654
 30
0.0
 11
287.0
 21
820.82219510669654
 31
0.0
  0
LINE
  5
7B5E
  8
0
 10
288.0
 20
819.82219510669654
 30
0.0
 11
287.0
 21
819.82219510669654
 31
0.0
  0
LINE
  5
7B5F
  8
0
 10
288.0
 20
822.82219510669654
 30
0.0
 11
287.0
 21
822.82219510669654
 31
0.0
  0
LINE
  5
7B60
  8
0
 10
288.0
 20
821.82219510669654
 30
0.0
 11
287.0
 21
821.82219510669654
 31
0.0
  0
LINE
  5
7B61
  8
0
 10
288.0
 20
814.82219510669654
 30
0.0
 11
287.0
 21
814.82219510669654
 31
0.0
  0
LINE
  5
7B62
  8
0
 10
288.0
 20
815.82219510669677
 30
0.0
 11
287.0
 21
815.82219510669677
 31
0.0
  0
LINE
  5
7B63
  8
0
 10
288.0
 20
816.82219510669677
 30
0.0
 11
287.0
 21
816.82219510669677
 31
0.0
  0
LINE
  5
7B64
  8
0
 10
288.0
 20
817.82219510669677
 30
0.0
 11
287.0
 21
817.82219510669677
 31
0.0
  0
LINE
  5
7B65
  8
0
 10
288.0
 20
828.82219510669654
 30
0.0
 11
285.0
 21
828.82219510669654
 31
0.0
  0
LINE
  5
7B66
  8
0
 10
288.0
 20
829.82219510669654
 30
0.0
 11
287.0
 21
829.82219510669654
 31
0.0
  0
LINE
  5
7B67
  8
0
 10
288.0
 20
831.82219510669654
 30
0.0
 11
287.0
 21
831.82219510669654
 31
0.0
  0
LINE
  5
7B68
  8
0
 10
288.0
 20
830.82219510669654
 30
0.0
 11
287.0
 21
830.82219510669654
 31
0.0
  0
LINE
  5
7B69
  8
0
 10
288.0
 20
823.82219510669677
 30
0.0
 11
286.0
 21
823.82219510669677
 31
0.0
  0
LINE
  5
7B6A
  8
0
 10
288.0
 20
824.82219510669677
 30
0.0
 11
287.0
 21
824.82219510669677
 31
0.0
  0
LINE
  5
7B6B
  8
0
 10
288.0
 20
825.82219510669677
 30
0.0
 11
287.0
 21
825.82219510669677
 31
0.0
  0
LINE
  5
7B6C
  8
0
 10
288.0
 20
826.82219510669665
 30
0.0
 11
287.0
 21
826.82219510669665
 31
0.0
  0
LINE
  5
7B6D
  8
0
 10
288.0
 20
827.82219510669654
 30
0.0
 11
287.0
 21
827.82219510669654
 31
0.0
  0
LINE
  5
7B6E
  8
0
 10
288.0
 20
838.82219510669654
 30
0.0
 11
285.0
 21
838.82219510669654
 31
0.0
  0
LINE
  5
7B6F
  8
0
 10
288.0
 20
833.82219510669677
 30
0.0
 11
286.0
 21
833.82219510669677
 31
0.0
  0
LINE
  5
7B70
  8
0
 10
288.0
 20
832.82219510669677
 30
0.0
 11
287.0
 21
832.82219510669677
 31
0.0
  0
LINE
  5
7B71
  8
0
 10
288.0
 20
834.82219510669665
 30
0.0
 11
287.0
 21
834.82219510669665
 31
0.0
  0
LINE
  5
7B72
  8
0
 10
288.0
 20
835.82219510669654
 30
0.0
 11
287.0
 21
835.82219510669654
 31
0.0
  0
LINE
  5
7B73
  8
0
 10
288.0
 20
836.82219510669654
 30
0.0
 11
287.0
 21
836.82219510669654
 31
0.0
  0
LINE
  5
7B74
  8
0
 10
288.0
 20
837.82219510669654
 30
0.0
 11
287.0
 21
837.82219510669654
 31
0.0
  0
LINE
  5
7B75
  8
0
 10
288.0
 20
840.82219510669677
 30
0.0
 11
287.0
 21
840.82219510669677
 31
0.0
  0
LINE
  5
7B76
  8
0
 10
288.0
 20
839.82219510669654
 30
0.0
 11
287.0
 21
839.82219510669654
 31
0.0
  0
LINE
  5
7B77
  8
0
 10
288.0
 20
848.82219510669677
 30
0.0
 11
285.0
 21
848.82219510669677
 31
0.0
  0
LINE
  5
7B78
  8
0
 10
288.0
 20
845.82219510669654
 30
0.0
 11
287.0
 21
845.82219510669654
 31
0.0
  0
LINE
  5
7B79
  8
0
 10
288.0
 20
846.82219510669654
 30
0.0
 11
287.0
 21
846.82219510669654
 31
0.0
  0
LINE
  5
7B7A
  8
0
 10
288.0
 20
847.82219510669654
 30
0.0
 11
287.0
 21
847.82219510669654
 31
0.0
  0
LINE
  5
7B7B
  8
0
 10
288.0
 20
843.82219510669665
 30
0.0
 11
286.0
 21
843.82219510669665
 31
0.0
  0
LINE
  5
7B7C
  8
0
 10
288.0
 20
844.82219510669654
 30
0.0
 11
287.0
 21
844.82219510669654
 31
0.0
  0
LINE
  5
7B7D
  8
0
 10
288.0
 20
842.82219510669677
 30
0.0
 11
287.0
 21
842.82219510669677
 31
0.0
  0
LINE
  5
7B7E
  8
0
 10
288.0
 20
841.82219510669677
 30
0.0
 11
287.0
 21
841.82219510669677
 31
0.0
  0
LINE
  5
7B7F
  8
0
 10
288.0
 20
854.82219510669654
 30
0.0
 11
287.0
 21
854.82219510669654
 31
0.0
  0
LINE
  5
7B80
  8
0
 10
288.0
 20
855.82219510669654
 30
0.0
 11
287.0
 21
855.82219510669654
 31
0.0
  0
LINE
  5
7B81
  8
0
 10
288.0
 20
856.82219510669677
 30
0.0
 11
287.0
 21
856.82219510669677
 31
0.0
  0
LINE
  5
7B82
  8
0
 10
288.0
 20
857.82219510669677
 30
0.0
 11
287.0
 21
857.82219510669677
 31
0.0
  0
LINE
  5
7B83
  8
0
 10
288.0
 20
853.82219510669654
 30
0.0
 11
286.0
 21
853.82219510669654
 31
0.0
  0
LINE
  5
7B84
  8
0
 10
288.0
 20
852.82219510669654
 30
0.0
 11
287.0
 21
852.82219510669654
 31
0.0
  0
LINE
  5
7B85
  8
0
 10
288.0
 20
851.82219510669665
 30
0.0
 11
287.0
 21
851.82219510669665
 31
0.0
  0
LINE
  5
7B86
  8
0
 10
288.0
 20
850.82219510669677
 30
0.0
 11
287.0
 21
850.82219510669677
 31
0.0
  0
LINE
  5
7B87
  8
0
 10
288.0
 20
849.82219510669677
 30
0.0
 11
287.0
 21
849.82219510669677
 31
0.0
  0
LINE
  5
7B88
  8
0
 10
288.0
 20
858.82219510669677
 30
0.0
 11
285.0
 21
858.82219510669677
 31
0.0
  0
LINE
  5
7B89
  8
0
 10
288.0
 20
863.82219510669654
 30
0.0
 11
286.0
 21
863.82219510669654
 31
0.0
  0
LINE
  5
7B8A
  8
0
 10
288.0
 20
864.82219510669654
 30
0.0
 11
287.0
 21
864.82219510669654
 31
0.0
  0
LINE
  5
7B8B
  8
0
 10
288.0
 20
865.82219510669677
 30
0.0
 11
287.0
 21
865.82219510669677
 31
0.0
  0
LINE
  5
7B8C
  8
0
 10
288.0
 20
866.82219510669677
 30
0.0
 11
287.0
 21
866.82219510669677
 31
0.0
  0
LINE
  5
7B8D
  8
0
 10
288.0
 20
861.82219510669654
 30
0.0
 11
287.0
 21
861.82219510669654
 31
0.0
  0
LINE
  5
7B8E
  8
0
 10
288.0
 20
860.82219510669654
 30
0.0
 11
287.0
 21
860.82219510669654
 31
0.0
  0
LINE
  5
7B8F
  8
0
 10
288.0
 20
859.82219510669665
 30
0.0
 11
287.0
 21
859.82219510669665
 31
0.0
  0
LINE
  5
7B90
  8
0
 10
288.0
 20
862.82219510669654
 30
0.0
 11
287.0
 21
862.82219510669654
 31
0.0
  0
LINE
  5
7B91
  8
0
 10
288.0
 20
868.82219510669665
 30
0.0
 11
285.0
 21
868.82219510669665
 31
0.0
  0
LINE
  5
7B92
  8
0
 10
288.0
 20
873.82219510669677
 30
0.0
 11
286.0
 21
873.82219510669677
 31
0.0
  0
LINE
  5
7B93
  8
0
 10
288.0
 20
872.82219510669654
 30
0.0
 11
287.0
 21
872.82219510669654
 31
0.0
  0
LINE
  5
7B94
  8
0
 10
288.0
 20
871.82219510669654
 30
0.0
 11
287.0
 21
871.82219510669654
 31
0.0
  0
LINE
  5
7B95
  8
0
 10
288.0
 20
874.82219510669677
 30
0.0
 11
287.0
 21
874.82219510669677
 31
0.0
  0
LINE
  5
7B96
  8
0
 10
288.0
 20
870.82219510669654
 30
0.0
 11
287.0
 21
870.82219510669654
 31
0.0
  0
LINE
  5
7B97
  8
0
 10
288.0
 20
869.82219510669654
 30
0.0
 11
287.0
 21
869.82219510669654
 31
0.0
  0
LINE
  5
7B98
  8
0
 10
288.0
 20
867.82219510669677
 30
0.0
 11
287.0
 21
867.82219510669677
 31
0.0
  0
LINE
  5
7B99
  8
0
 10
288.0
 20
878.82219510669654
 30
0.0
 11
285.0
 21
878.82219510669654
 31
0.0
  0
LINE
  5
7B9A
  8
0
 10
288.0
 20
883.82219510669677
 30
0.0
 11
286.0
 21
883.82219510669677
 31
0.0
  0
LINE
  5
7B9B
  8
0
 10
288.0
 20
882.82219510669677
 30
0.0
 11
287.0
 21
882.82219510669677
 31
0.0
  0
LINE
  5
7B9C
  8
0
 10
288.0
 20
881.82219510669677
 30
0.0
 11
287.0
 21
881.82219510669677
 31
0.0
  0
LINE
  5
7B9D
  8
0
 10
288.0
 20
880.82219510669654
 30
0.0
 11
287.0
 21
880.82219510669654
 31
0.0
  0
LINE
  5
7B9E
  8
0
 10
288.0
 20
875.82219510669677
 30
0.0
 11
287.0
 21
875.82219510669677
 31
0.0
  0
LINE
  5
7B9F
  8
0
 10
288.0
 20
876.82219510669665
 30
0.0
 11
287.0
 21
876.82219510669665
 31
0.0
  0
LINE
  5
7BA0
  8
0
 10
288.0
 20
877.82219510669654
 30
0.0
 11
287.0
 21
877.82219510669654
 31
0.0
  0
LINE
  5
7BA1
  8
0
 10
288.0
 20
879.82219510669654
 30
0.0
 11
287.0
 21
879.82219510669654
 31
0.0
  0
LINE
  5
7BA2
  8
0
 10
288.0
 20
888.82219510669654
 30
0.0
 11
285.0
 21
888.82219510669654
 31
0.0
  0
LINE
  5
7BA3
  8
0
 10
288.0
 20
892.82219510669677
 30
0.0
 11
287.0
 21
892.82219510669677
 31
0.0
  0
LINE
  5
7BA4
  8
0
 10
288.0
 20
891.82219510669677
 30
0.0
 11
287.0
 21
891.82219510669677
 31
0.0
  0
LINE
  5
7BA5
  8
0
 10
288.0
 20
890.82219510669677
 30
0.0
 11
287.0
 21
890.82219510669677
 31
0.0
  0
LINE
  5
7BA6
  8
0
 10
288.0
 20
889.82219510669654
 30
0.0
 11
287.0
 21
889.82219510669654
 31
0.0
  0
LINE
  5
7BA7
  8
0
 10
288.0
 20
886.82219510669654
 30
0.0
 11
287.0
 21
886.82219510669654
 31
0.0
  0
LINE
  5
7BA8
  8
0
 10
288.0
 20
884.82219510669665
 30
0.0
 11
287.0
 21
884.82219510669665
 31
0.0
  0
LINE
  5
7BA9
  8
0
 10
288.0
 20
885.82219510669654
 30
0.0
 11
287.0
 21
885.82219510669654
 31
0.0
  0
LINE
  5
7BAA
  8
0
 10
288.0
 20
887.82219510669654
 30
0.0
 11
287.0
 21
887.82219510669654
 31
0.0
  0
LINE
  5
7BAB
  8
0
 10
288.0
 20
898.82219510669677
 30
0.0
 11
285.0
 21
898.82219510669677
 31
0.0
  0
LINE
  5
7BAC
  8
0
 10
288.0
 20
899.82219510669677
 30
0.0
 11
287.0
 21
899.82219510669677
 31
0.0
  0
LINE
  5
7BAD
  8
0
 10
288.0
 20
900.82219510669677
 30
0.0
 11
287.0
 21
900.82219510669677
 31
0.0
  0
LINE
  5
7BAE
  8
0
 10
288.0
 20
901.82219510669665
 30
0.0
 11
287.0
 21
901.82219510669665
 31
0.0
  0
LINE
  5
7BAF
  8
0
 10
288.0
 20
897.82219510669654
 30
0.0
 11
287.0
 21
897.82219510669654
 31
0.0
  0
LINE
  5
7BB0
  8
0
 10
288.0
 20
893.82219510669665
 30
0.0
 11
286.0
 21
893.82219510669665
 31
0.0
  0
LINE
  5
7BB1
  8
0
 10
288.0
 20
894.82219510669654
 30
0.0
 11
287.0
 21
894.82219510669654
 31
0.0
  0
LINE
  5
7BB2
  8
0
 10
288.0
 20
896.82219510669654
 30
0.0
 11
287.0
 21
896.82219510669654
 31
0.0
  0
LINE
  5
7BB3
  8
0
 10
288.0
 20
895.82219510669654
 30
0.0
 11
287.0
 21
895.82219510669654
 31
0.0
  0
LINE
  5
7BB4
  8
0
 10
288.0
 20
908.82219510669665
 30
0.0
 11
285.0
 21
908.82219510669665
 31
0.0
  0
LINE
  5
7BB5
  8
0
 10
288.0
 20
907.82219510669643
 30
0.0
 11
287.0
 21
907.82219510669643
 31
0.0
  0
LINE
  5
7BB6
  8
0
 10
288.0
 20
906.82219510669654
 30
0.0
 11
287.0
 21
906.82219510669654
 31
0.0
  0
LINE
  5
7BB7
  8
0
 10
288.0
 20
902.82219510669654
 30
0.0
 11
287.0
 21
902.82219510669654
 31
0.0
  0
LINE
  5
7BB8
  8
0
 10
288.0
 20
903.82219510669654
 30
0.0
 11
286.0
 21
903.82219510669654
 31
0.0
  0
LINE
  5
7BB9
  8
0
 10
288.0
 20
905.82219510669654
 30
0.0
 11
287.0
 21
905.82219510669654
 31
0.0
  0
LINE
  5
7BBA
  8
0
 10
288.0
 20
904.82219510669654
 30
0.0
 11
287.0
 21
904.82219510669654
 31
0.0
  0
LINE
  5
7BBB
  8
0
 10
288.0
 20
909.82219510669665
 30
0.0
 11
287.0
 21
909.82219510669665
 31
0.0
  0
LINE
  5
7BBC
  8
0
 10
288.0
 20
918.82219510669665
 30
0.0
 11
285.0
 21
918.82219510669665
 31
0.0
  0
LINE
  5
7BBD
  8
0
 10
288.0
 20
917.82219510669665
 30
0.0
 11
287.0
 21
917.82219510669665
 31
0.0
  0
LINE
  5
7BBE
  8
0
 10
288.0
 20
916.82219510669665
 30
0.0
 11
287.0
 21
916.82219510669665
 31
0.0
  0
LINE
  5
7BBF
  8
0
 10
288.0
 20
915.82219510669643
 30
0.0
 11
287.0
 21
915.82219510669643
 31
0.0
  0
LINE
  5
7BC0
  8
0
 10
288.0
 20
914.82219510669654
 30
0.0
 11
287.0
 21
914.82219510669654
 31
0.0
  0
LINE
  5
7BC1
  8
0
 10
288.0
 20
913.82219510669654
 30
0.0
 11
286.0
 21
913.82219510669654
 31
0.0
  0
LINE
  5
7BC2
  8
0
 10
288.0
 20
910.82219510669654
 30
0.0
 11
287.0
 21
910.82219510669654
 31
0.0
  0
LINE
  5
7BC3
  8
0
 10
288.0
 20
911.82219510669654
 30
0.0
 11
287.0
 21
911.82219510669654
 31
0.0
  0
LINE
  5
7BC4
  8
0
 10
288.0
 20
912.82219510669654
 30
0.0
 11
287.0
 21
912.82219510669654
 31
0.0
  0
LINE
  5
7BC5
  8
0
 10
288.0
 20
927.82219510669654
 30
0.0
 11
287.0
 21
927.82219510669654
 31
0.0
  0
LINE
  5
7BC6
  8
0
 10
288.0
 20
926.82219510669665
 30
0.0
 11
287.0
 21
926.82219510669665
 31
0.0
  0
LINE
  5
7BC7
  8
0
 10
288.0
 20
925.82219510669665
 30
0.0
 11
287.0
 21
925.82219510669665
 31
0.0
  0
LINE
  5
7BC8
  8
0
 10
288.0
 20
924.82219510669643
 30
0.0
 11
287.0
 21
924.82219510669643
 31
0.0
  0
LINE
  5
7BC9
  8
0
 10
288.0
 20
921.82219510669654
 30
0.0
 11
287.0
 21
921.82219510669654
 31
0.0
  0
LINE
  5
7BCA
  8
0
 10
288.0
 20
922.82219510669654
 30
0.0
 11
287.0
 21
922.82219510669654
 31
0.0
  0
LINE
  5
7BCB
  8
0
 10
288.0
 20
923.82219510669643
 30
0.0
 11
286.0
 21
923.82219510669643
 31
0.0
  0
LINE
  5
7BCC
  8
0
 10
288.0
 20
919.82219510669654
 30
0.0
 11
287.0
 21
919.82219510669654
 31
0.0
  0
LINE
  5
7BCD
  8
0
 10
288.0
 20
920.82219510669654
 30
0.0
 11
287.0
 21
920.82219510669654
 31
0.0
  0
LINE
  5
7BCE
  8
0
 10
288.0
 20
928.82219510669654
 30
0.0
 11
285.0
 21
928.82219510669654
 31
0.0
  0
LINE
  5
7BCF
  8
0
 10
288.0
 20
930.82219510669654
 30
0.0
 11
287.0
 21
930.82219510669654
 31
0.0
  0
LINE
  5
7BD0
  8
0
 10
288.0
 20
931.82219510669654
 30
0.0
 11
287.0
 21
931.82219510669654
 31
0.0
  0
LINE
  5
7BD1
  8
0
 10
288.0
 20
935.82219510669654
 30
0.0
 11
287.0
 21
935.82219510669654
 31
0.0
  0
LINE
  5
7BD2
  8
0
 10
288.0
 20
934.82219510669665
 30
0.0
 11
287.0
 21
934.82219510669665
 31
0.0
  0
LINE
  5
7BD3
  8
0
 10
288.0
 20
932.82219510669643
 30
0.0
 11
287.0
 21
932.82219510669643
 31
0.0
  0
LINE
  5
7BD4
  8
0
 10
288.0
 20
933.82219510669665
 30
0.0
 11
286.0
 21
933.82219510669665
 31
0.0
  0
LINE
  5
7BD5
  8
0
 10
288.0
 20
929.82219510669654
 30
0.0
 11
287.0
 21
929.82219510669654
 31
0.0
  0
LINE
  5
7BD6
  8
0
 10
288.0
 20
938.82219510669654
 30
0.0
 11
285.0
 21
938.82219510669654
 31
0.0
  0
LINE
  5
7BD7
  8
0
 10
288.0
 20
939.82219510669654
 30
0.0
 11
287.0
 21
939.82219510669654
 31
0.0
  0
LINE
  5
7BD8
  8
0
 10
288.0
 20
940.82219510669643
 30
0.0
 11
287.0
 21
940.82219510669643
 31
0.0
  0
LINE
  5
7BD9
  8
0
 10
288.0
 20
941.82219510669665
 30
0.0
 11
287.0
 21
941.82219510669665
 31
0.0
  0
LINE
  5
7BDA
  8
0
 10
288.0
 20
942.82219510669665
 30
0.0
 11
287.0
 21
942.82219510669665
 31
0.0
  0
LINE
  5
7BDB
  8
0
 10
288.0
 20
944.82219510669654
 30
0.0
 11
287.0
 21
944.82219510669654
 31
0.0
  0
LINE
  5
7BDC
  8
0
 10
288.0
 20
943.82219510669665
 30
0.0
 11
286.0
 21
943.82219510669665
 31
0.0
  0
LINE
  5
7BDD
  8
0
 10
288.0
 20
937.82219510669654
 30
0.0
 11
287.0
 21
937.82219510669654
 31
0.0
  0
LINE
  5
7BDE
  8
0
 10
288.0
 20
936.82219510669654
 30
0.0
 11
287.0
 21
936.82219510669654
 31
0.0
  0
LINE
  5
7BDF
  8
0
 10
288.0
 20
948.82219510669643
 30
0.0
 11
285.0
 21
948.82219510669643
 31
0.0
  0
LINE
  5
7BE0
  8
0
 10
288.0
 20
947.82219510669654
 30
0.0
 11
287.0
 21
947.82219510669654
 31
0.0
  0
LINE
  5
7BE1
  8
0
 10
288.0
 20
946.82219510669654
 30
0.0
 11
287.0
 21
946.82219510669654
 31
0.0
  0
LINE
  5
7BE2
  8
0
 10
288.0
 20
949.82219510669643
 30
0.0
 11
287.0
 21
949.82219510669643
 31
0.0
  0
LINE
  5
7BE3
  8
0
 10
288.0
 20
950.82219510669665
 30
0.0
 11
287.0
 21
950.82219510669665
 31
0.0
  0
LINE
  5
7BE4
  8
0
 10
288.0
 20
951.82219510669665
 30
0.0
 11
287.0
 21
951.82219510669665
 31
0.0
  0
LINE
  5
7BE5
  8
0
 10
288.0
 20
952.82219510669654
 30
0.0
 11
287.0
 21
952.82219510669654
 31
0.0
  0
LINE
  5
7BE6
  8
0
 10
288.0
 20
953.82219510669654
 30
0.0
 11
286.0
 21
953.82219510669654
 31
0.0
  0
LINE
  5
7BE7
  8
0
 10
288.0
 20
945.82219510669654
 30
0.0
 11
287.0
 21
945.82219510669654
 31
0.0
  0
LINE
  5
7BE8
  8
0
 10
288.0
 20
958.82219510669665
 30
0.0
 11
285.0
 21
958.82219510669665
 31
0.0
  0
LINE
  5
7BE9
  8
0
 10
288.0
 20
962.82219510669654
 30
0.0
 11
287.0
 21
962.82219510669654
 31
0.0
  0
LINE
  5
7BEA
  8
0
 10
288.0
 20
957.82219510669643
 30
0.0
 11
287.0
 21
957.82219510669643
 31
0.0
  0
LINE
  5
7BEB
  8
0
 10
288.0
 20
956.82219510669654
 30
0.0
 11
287.0
 21
956.82219510669654
 31
0.0
  0
LINE
  5
7BEC
  8
0
 10
288.0
 20
955.82219510669654
 30
0.0
 11
287.0
 21
955.82219510669654
 31
0.0
  0
LINE
  5
7BED
  8
0
 10
288.0
 20
954.82219510669654
 30
0.0
 11
287.0
 21
954.82219510669654
 31
0.0
  0
LINE
  5
7BEE
  8
0
 10
288.0
 20
959.82219510669665
 30
0.0
 11
287.0
 21
959.82219510669665
 31
0.0
  0
LINE
  5
7BEF
  8
0
 10
288.0
 20
960.82219510669654
 30
0.0
 11
287.0
 21
960.82219510669654
 31
0.0
  0
LINE
  5
7BF0
  8
0
 10
288.0
 20
961.82219510669654
 30
0.0
 11
287.0
 21
961.82219510669654
 31
0.0
  0
LINE
  5
7BF1
  8
0
 10
288.0
 20
968.82219510669665
 30
0.0
 11
285.0
 21
968.82219510669665
 31
0.0
  0
LINE
  5
7BF2
  8
0
 10
288.0
 20
967.82219510669665
 30
0.0
 11
287.0
 21
967.82219510669665
 31
0.0
  0
LINE
  5
7BF3
  8
0
 10
288.0
 20
966.82219510669665
 30
0.0
 11
287.0
 21
966.82219510669665
 31
0.0
  0
LINE
  5
7BF4
  8
0
 10
288.0
 20
965.82219510669643
 30
0.0
 11
287.0
 21
965.82219510669643
 31
0.0
  0
LINE
  5
7BF5
  8
0
 10
288.0
 20
964.82219510669654
 30
0.0
 11
287.0
 21
964.82219510669654
 31
0.0
  0
LINE
  5
7BF6
  8
0
 10
288.0
 20
969.82219510669654
 30
0.0
 11
287.0
 21
969.82219510669654
 31
0.0
  0
LINE
  5
7BF7
  8
0
 10
288.0
 20
970.82219510669654
 30
0.0
 11
287.0
 21
970.82219510669654
 31
0.0
  0
LINE
  5
7BF8
  8
0
 10
288.0
 20
963.82219510669654
 30
0.0
 11
286.0
 21
963.82219510669654
 31
0.0
  0
LINE
  5
7BF9
  8
0
 10
288.0
 20
978.82219510669654
 30
0.0
 11
285.0
 21
978.82219510669654
 31
0.0
  0
LINE
  5
7BFA
  8
0
 10
288.0
 20
979.82219510669654
 30
0.0
 11
287.0
 21
979.82219510669654
 31
0.0
  0
LINE
  5
7BFB
  8
0
 10
288.0
 20
974.82219510669643
 30
0.0
 11
287.0
 21
974.82219510669643
 31
0.0
  0
LINE
  5
7BFC
  8
0
 10
288.0
 20
971.82219510669654
 30
0.0
 11
287.0
 21
971.82219510669654
 31
0.0
  0
LINE
  5
7BFD
  8
0
 10
288.0
 20
972.82219510669654
 30
0.0
 11
287.0
 21
972.82219510669654
 31
0.0
  0
LINE
  5
7BFE
  8
0
 10
288.0
 20
977.82219510669654
 30
0.0
 11
287.0
 21
977.82219510669654
 31
0.0
  0
LINE
  5
7BFF
  8
0
 10
288.0
 20
976.82219510669665
 30
0.0
 11
287.0
 21
976.82219510669665
 31
0.0
  0
LINE
  5
7C00
  8
0
 10
288.0
 20
975.82219510669665
 30
0.0
 11
287.0
 21
975.82219510669665
 31
0.0
  0
LINE
  5
7C01
  8
0
 10
288.0
 20
973.82219510669643
 30
0.0
 11
286.0
 21
973.82219510669643
 31
0.0
  0
LINE
  5
7C02
  8
0
 10
288.0
 20
988.82219510669654
 30
0.0
 11
285.0
 21
988.82219510669654
 31
0.0
  0
LINE
  5
7C03
  8
0
 10
288.0
 20
987.82219510669654
 30
0.0
 11
287.0
 21
987.82219510669654
 31
0.0
  0
LINE
  5
7C04
  8
0
 10
288.0
 20
985.82219510669654
 30
0.0
 11
287.0
 21
985.82219510669654
 31
0.0
  0
LINE
  5
7C05
  8
0
 10
288.0
 20
984.82219510669665
 30
0.0
 11
287.0
 21
984.82219510669665
 31
0.0
  0
LINE
  5
7C06
  8
0
 10
288.0
 20
980.82219510669654
 30
0.0
 11
287.0
 21
980.82219510669654
 31
0.0
  0
LINE
  5
7C07
  8
0
 10
288.0
 20
981.82219510669654
 30
0.0
 11
287.0
 21
981.82219510669654
 31
0.0
  0
LINE
  5
7C08
  8
0
 10
288.0
 20
982.82219510669643
 30
0.0
 11
287.0
 21
982.82219510669643
 31
0.0
  0
LINE
  5
7C09
  8
0
 10
288.0
 20
986.82219510669654
 30
0.0
 11
287.0
 21
986.82219510669654
 31
0.0
  0
LINE
  5
7C0A
  8
0
 10
288.0
 20
983.82219510669665
 30
0.0
 11
286.0
 21
983.82219510669665
 31
0.0
  0
LINE
  5
7C0B
  8
0
 10
288.0
 20
995.82219510669654
 30
0.0
 11
287.0
 21
995.82219510669654
 31
0.0
  0
LINE
  5
7C0C
  8
0
 10
288.0
 20
996.82219510669654
 30
0.0
 11
287.0
 21
996.82219510669654
 31
0.0
  0
LINE
  5
7C0D
  8
0
 10
288.0
 20
994.82219510669654
 30
0.0
 11
287.0
 21
994.82219510669654
 31
0.0
  0
LINE
  5
7C0E
  8
0
 10
288.0
 20
989.82219510669654
 30
0.0
 11
287.0
 21
989.82219510669654
 31
0.0
  0
LINE
  5
7C0F
  8
0
 10
288.0
 20
990.82219510669643
 30
0.0
 11
287.0
 21
990.82219510669643
 31
0.0
  0
LINE
  5
7C10
  8
0
 10
288.0
 20
991.82219510669665
 30
0.0
 11
287.0
 21
991.82219510669665
 31
0.0
  0
LINE
  5
7C11
  8
0
 10
288.0
 20
992.82219510669665
 30
0.0
 11
287.0
 21
992.82219510669665
 31
0.0
  0
LINE
  5
7C12
  8
0
 10
288.0
 20
993.82219510669665
 30
0.0
 11
286.0
 21
993.82219510669665
 31
0.0
  0
LINE
  5
7C13
  8
0
 10
288.0
 20
998.82219510669643
 30
0.0
 11
285.0
 21
998.82219510669643
 31
0.0
  0
LINE
  5
7C14
  8
0
 10
288.0
 20
1004.822195106696
 30
0.0
 11
287.0
 21
1004.822195106696
 31
0.0
  0
LINE
  5
7C15
  8
0
 10
288.0
 20
1005.822195106696
 30
0.0
 11
287.0
 21
1005.822195106696
 31
0.0
  0
LINE
  5
7C16
  8
0
 10
288.0
 20
1003.822195106696
 30
0.0
 11
286.0
 21
1003.822195106696
 31
0.0
  0
LINE
  5
7C17
  8
0
 10
288.0
 20
997.82219510669654
 30
0.0
 11
287.0
 21
997.82219510669654
 31
0.0
  0
LINE
  5
7C18
  8
0
 10
288.0
 20
1002.822195106696
 30
0.0
 11
287.0
 21
1002.822195106696
 31
0.0
  0
LINE
  5
7C19
  8
0
 10
288.0
 20
1001.8221951066949
 30
0.0
 11
287.0
 21
1001.8221951066949
 31
0.0
  0
LINE
  5
7C1A
  8
0
 10
288.0
 20
1000.822195106696
 30
0.0
 11
287.0
 21
1000.822195106696
 31
0.0
  0
LINE
  5
7C1B
  8
0
 10
288.0
 20
999.82219510669643
 30
0.0
 11
287.0
 21
999.82219510669643
 31
0.0
  0
LINE
  5
7C1C
  8
0
 10
288.0
 20
1006.822195106696
 30
0.0
 11
287.0
 21
1006.822195106696
 31
0.0
  0
LINE
  5
7C1D
  8
0
 10
288.0
 20
1007.8221951066949
 30
0.0
 11
287.0
 21
1007.8221951066949
 31
0.0
  0
TEXT
  5
7C1E
  8
0
 10
195.32666484236159
 20
1030.4756553279949
 30
0.0
 40
3.0
  1
地　　下　　水　　文
 72
     1
 11
212.92666484236159
 21
1030.075655327995
 31
0.0
 73
     1
  0
TEXT
  5
7C1F
  8
0
 10
198.46370386358581
 20
1025.3501600640809
 30
0.0
 40
2.0
  1
作業日毎の孔内水位
 72
     1
 11
208.99703719691911
 21
1025.0834933974149
 31
0.0
 73
     1
  0
TEXT
  5
7C20
  8
0
 10
225.31935636474969
 20
1025.162409947254
 30
0.0
 40
2.5
  1
孔壁保護
 72
     1
 11
230.98602303141641
 21
1024.829076613921
 31
0.0
 73
     1
  0
TEXT
  5
7C21
  8
0
 10
232.6666666666666
 20
1010.9268519516839
 30
0.0
 40
2.5
  1
理 由
 72
     4
 11
236.0
 21
1012.176851951685
 31
0.0
  0
TEXT
  5
7C22
  8
0
 10
232.58333333333329
 20
1020.6983658605091
 30
0.0
 40
2.5
  1
実 施
 72
     4
 11
236.0
 21
1021.94836586051
 31
0.0
  0
TEXT
  5
7C23
  8
0
 10
247.9601105762938
 20
1026.5721951066951
 30
0.0
 40
2.5
  1
地下水検層
  7
STANDATDT
 72
     4
 11
247.9601105762938
 21
1019.3221951066949
 31
0.0
  0
TEXT
  5
7C24
  8
0
 10
243.79479831475291
 20
1015.4374117133621
 30
0.0
 40
2.5
  1
汲
  7
STANDATDT
 72
     4
 11
243.79479831475291
 21
1014.1874117133621
 31
0.0
  0
TEXT
  5
7C25
  8
0
 10
243.79479831475291
 20
1027.0856687868099
 30
0.0
 40
2.5
  1
方法
  7
STANDATDT
 72
     4
 11
243.79479831475291
 21
1024.3356687868099
 31
0.0
  0
TEXT
  5
7C26
  8
0
 10
243.88318706893361
 20
1018.001904150279
 30
0.0
 40
2.5
  1
・
  7
STANDATDT
 72
     4
 11
243.88318706893361
 21
1016.585237483613
 31
0.0
  0
TEXT
  5
7C27
  8
0
 10
243.79479831475291
 20
1019.954662364904
 30
0.0
 40
2.5
  1
自
  7
STANDATDT
 72
     4
 11
243.79479831475291
 21
1018.621329031571
 31
0.0
  0
TEXT
  5
7C28
  8
0
 10
253.53720931285639
 20
1032.572195106693
 30
0.0
 40
2.5
  1
保　　孔　　管
  7
STANDATDT
 72
     4
 11
253.53720931285639
 21
1022.322195106694
 31
0.0
  0
TEXT
  5
7C29
  8
0
 10
258.49999999999989
 20
1032.572195106693
 30
0.0
 40
2.5
  1
計　測　機　器
  7
STANDATDT
 72
     4
 11
258.49999999999989
 21
1022.322195106694
 31
0.0
  0
TEXT
  5
7C2A
  8
0
 10
264.22598708334669
 20
1020.885167918777
 30
0.0
 40
2.5
  1
（　　　　　）
 72
     1
 11
274.30932041668001
 21
1020.551834585444
 31
0.0
 73
     1
  0
TEXT
  5
7C2B
  8
0
 10
265.70932041667999
 20
1027.912731240672
 30
0.0
 40
3.0
  1
備　　　考
 72
     1
 11
274.30932041668001
 21
1027.5127312406721
 31
0.0
 73
     1
  0
TEXT
  5
7C2C
  8
0
 10
228.41833910692731
 20
1022.7890484176939
 30
0.0
 40
2.5
  1
種　　類
  7
STANDATDT
 72
     4
 11
228.41833910692731
 21
1017.0390484176939
 31
0.0
  0
TEXT
  5
7C2D
  8
0
 10
223.40645648222841
 20
1022.855321684253
 30
0.0
 40
2.5
  1
孔 径
  7
STANDATDT
 72
     4
 11
223.40645648222841
 21
1019.355321684254
 31
0.0
  0
TEXT
  5
7C2E
  8
0
 10
219.02538429870469
 20
1023.182129403348
 30
0.0
 40
2.0
  1
ケ
  7
STANDATDT
 72
     4
 11
219.02538429870469
 21
1022.182129403349
 31
0.0
  0
TEXT
  5
7C2F
  8
0
 10
214.9390900392535
 20
1023.025316608456
 30
0.0
 40
2.0
  1
下端深度
  7
STANDATDT
 72
     4
 11
214.9390900392535
 21
1018.35864994179
 31
0.0
  0
TEXT
  5
7C30
  8
0
 10
220.4412028399565
 20
1010.627863607318
 30
0.0
 40
1.5
  1
（mm）
 72
     1
 11
223.14120283995649
 21
1012.127863607318
 31
0.0
 73
     3
  0
TEXT
  5
7C31
  8
0
 10
213.55864189052579
 20
1010.7747920441479
 30
0.0
 40
1.5
  1
（ｍ）
 72
     1
 11
216.00864189052581
 21
1012.274792044149
 31
0.0
 73
     3
  0
TEXT
  5
7C32
  8
0
 10
206.55000000000001
 20
1010.7747920441479
 30
0.0
 40
1.5
  1
（ｍ）
 72
     1
 11
209.0
 21
1012.274792044149
 31
0.0
 73
     3
  0
TEXT
  5
7C33
  8
0
 10
206.0
 20
1015.937213145422
 30
0.0
 40
1.8
  1
作業後
 72
     1
 11
209.0
 21
1017.7372131454219
 31
0.0
 73
     3
  0
LINE
  5
7C34
  8
0
 10
205.55327652769159
 20
1015.271629112864
 30
0.0
 11
212.30281296402401
 21
1015.271629112864
 31
0.0
  0
TEXT
  5
7C35
  8
0
 10
206.35447523153761
 20
1018.6927206276559
 30
0.0
 40
2.0
  1
水 位
 72
     4
 11
209.0878085648709
 21
1019.6927206276559
 31
0.0
  0
TEXT
  5
7C36
  8
0
 10
206.4211418982043
 20
1021.137190724556
 30
0.0
 40
2.0
  1
孔 内
 72
     4
 11
209.0878085648709
 21
1022.137190724555
 31
0.0
  0
TEXT
  5
7C37
  8
0
 10
200.8152283021663
 20
1022.617296864584
 30
0.0
 40
2.5
  1
掘進月日
  7
STANDATDT
 72
     4
 11
200.8152283021663
 21
1016.950630197918
 31
0.0
  0
TEXT
  5
7C38
  8
0
 10
188.45617209643979
 20
1010.775052117912
 30
0.0
 40
1.5
  1
（l/分）
 72
     1
 11
192.0311720964398
 21
1012.275052117912
 31
0.0
 73
     3
  0
TEXT
  5
7C39
  8
0
 10
192.24753160322931
 20
1027.097068491322
 30
0.0
 40
3.0
  1
排 水 量
  7
STANDATDT
 72
     4
 11
192.24753160322931
 21
1020.197068491323
 31
0.0
  0
TEXT
  5
7C3A
  8
0
 10
182.24753160322931
 20
1027.097068491322
 30
0.0
 40
3.0
  1
送 水 量
  7
STANDATDT
 72
     4
 11
182.24753160322931
 21
1020.197068491323
 31
0.0
  0
TEXT
  5
7C3B
  8
0
 10
178.45617209643979
 20
1010.775052117912
 30
0.0
 40
1.5
  1
（l/分）
 72
     1
 11
182.0311720964398
 21
1012.275052117912
 31
0.0
 73
     3
  0
TEXT
  5
7C3C
  8
0
 10
206.0
 20
1012.929420446196
 30
0.0
 40
1.8
  1
作業前
 72
     1
 11
209.0
 21
1014.7294204461959
 31
0.0
 73
     3
  0
LINE
  5
7C3E
  8
0
 10
10.0
 20
8.8221951066968813
 30
0.0
 11
10.0
 21
1008.822195106696
 31
0.0
  0
LINE
  5
7C3F
  8
0
 10
10.0
 20
1008.822195106696
 30
0.0
 11
288.0
 21
1008.822195106696
 31
0.0
  0
LINE
  5
7C40
  8
0
 10
288.0
 20
1008.822195106696
 30
0.0
 11
288.0
 21
8.8221951066968813
 31
0.0
  0
LINE
  5
7C41
  8
0
 10
288.0
 20
8.8221951066968813
 30
0.0
 11
10.0
 21
8.8221951066968813
 31
0.0
  0
LINE
  5
7C42
  8
0
 10
10.0
 20
1009.8221951066949
 30
0.0
 11
10.0
 21
1034.822195106696
 31
0.0
  0
LINE
  5
7C43
  8
0
 10
10.0
 20
1034.822195106696
 30
0.0
 11
288.0
 21
1034.822195106696
 31
0.0
  0
LINE
  5
7C44
  8
0
 10
288.0
 20
1034.822195106696
 30
0.0
 11
288.0
 21
1009.8221951066949
 31
0.0
  0
LINE
  5
7C45
  8
0
 10
288.0
 20
1009.8221951066949
 30
0.0
 11
10.0
 21
1009.8221951066949
 31
0.0
  0
TEXT
  5
7C46
  8
0
 10
245.044798314753
 20
1020.6810403525629
 30
0.0
 40
2.5
  1
（
 50
270.0
  7
STANDATDT
 72
     4
 11
243.79479831475291
 21
1020.6810403525629
 31
0.0
  0
TEXT
  5
7C47
  8
0
 10
245.044798314753
 20
1011.337486650757
 30
0.0
 40
2.5
  1
）
 50
270.0
  7
STANDATDT
 72
     4
 11
243.79479831475291
 21
1011.337486650757
 31
0.0
  0
TEXT
  5
7C48
  8
0
 10
219.02538429870469
 20
1019.531317544396
 30
0.0
 40
2.0
  1
シング
  7
STANDATDT
 72
     4
 11
219.02538429870469
 21
1016.131317544397
 31
0.0
  0
TEXT
  5
7C49
  8
0
 10
219.02538429870469
 20
1020.324949633135
 30
0.0
 40
2.0
  1
-
 50
90.0
  7
STANDATDT
 72
     4
 11
219.02538429870469
 21
1020.324949633135
 31
0.0
  0
POLYLINE
  5
7C4A
  8
0
 66
     1
 10
0.0
 20
0.0
 30
0.0
 70
     1
  0
VERTEX
  5
8375
  8
0
 10
0.0
 20
1119.999999999998
 30
0.0
  0
VERTEX
  5
8376
  8
0
 10
297.0
 20
1119.999999999998
 30
0.0
  0
VERTEX
  5
8377
  8
0
 10
297.0
 20
0.0
 30
0.0
  0
VERTEX
  5
8378
  8
0
 10
0.0
 20
0.0
 30
0.0
  0
SEQEND
  5
8379
  8
0
  0
LINE
  5
7C50
  8
0
 10
10.0
 20
708.82219510669654
 30
0.0
 11
13.0
 21
708.82219510669654
 31
0.0
  0
TEXT
  5
7C51
  8
0
 10
15.33042310703968
 20
707.82219510669654
 30
0.0
 40
2.0
  1
30
 72
     2
 11
18.330423107039682
 21
708.82219510669654
 31
0.0
 73
     2
  0
TEXT
  5
7C52
  8
0
 10
14.997089773706341
 20
617.82219510669665
 30
0.0
 40
2.0
  1
39
 72
     2
 11
18.330423107039682
 21
618.82219510669665
 31
0.0
 73
     2
  0
LINE
  5
7C53
  8
0
 10
10.0
 20
608.82219510669665
 30
0.0
 11
13.0
 21
608.82219510669665
 31
0.0
  0
LINE
  5
7C54
  8
0
 10
10.0
 20
609.82219510669665
 30
0.0
 11
11.0
 21
609.82219510669665
 31
0.0
  0
LINE
  5
7C55
  8
0
 10
10.0
 20
618.82219510669665
 30
0.0
 11
13.0
 21
618.82219510669665
 31
0.0
  0
LINE
  5
7C56
  8
0
 10
10.0
 20
617.82219510669677
 30
0.0
 11
11.0
 21
617.82219510669677
 31
0.0
  0
LINE
  5
7C57
  8
0
 10
10.0
 20
616.82219510669665
 30
0.0
 11
11.0
 21
616.82219510669665
 31
0.0
  0
LINE
  5
7C58
  8
0
 10
10.0
 20
615.82219510669665
 30
0.0
 11
11.0
 21
615.82219510669665
 31
0.0
  0
LINE
  5
7C59
  8
0
 10
10.0
 20
614.82219510669665
 30
0.0
 11
11.0
 21
614.82219510669665
 31
0.0
  0
LINE
  5
7C5A
  8
0
 10
10.0
 20
613.82219510669665
 30
0.0
 11
12.0
 21
613.82219510669665
 31
0.0
  0
LINE
  5
7C5B
  8
0
 10
10.0
 20
610.82219510669665
 30
0.0
 11
11.0
 21
610.82219510669665
 31
0.0
  0
LINE
  5
7C5C
  8
0
 10
10.0
 20
611.82219510669665
 30
0.0
 11
11.0
 21
611.82219510669665
 31
0.0
  0
LINE
  5
7C5D
  8
0
 10
10.0
 20
612.82219510669665
 30
0.0
 11
11.0
 21
612.82219510669665
 31
0.0
  0
TEXT
  5
7C5E
  8
0
 10
15.33042310703968
 20
607.82219510669665
 30
0.0
 40
2.0
  1
40
 72
     2
 11
18.330423107039682
 21
608.82219510669665
 31
0.0
 73
     2
  0
LINE
  5
7C5F
  8
0
 10
10.0
 20
627.82219510669665
 30
0.0
 11
11.0
 21
627.82219510669665
 31
0.0
  0
LINE
  5
7C60
  8
0
 10
10.0
 20
626.82219510669665
 30
0.0
 11
11.0
 21
626.82219510669665
 31
0.0
  0
LINE
  5
7C61
  8
0
 10
10.0
 20
625.82219510669677
 30
0.0
 11
11.0
 21
625.82219510669677
 31
0.0
  0
LINE
  5
7C62
  8
0
 10
10.0
 20
624.82219510669665
 30
0.0
 11
11.0
 21
624.82219510669665
 31
0.0
  0
LINE
  5
7C63
  8
0
 10
10.0
 20
621.82219510669677
 30
0.0
 11
11.0
 21
621.82219510669677
 31
0.0
  0
LINE
  5
7C64
  8
0
 10
10.0
 20
622.82219510669665
 30
0.0
 11
11.0
 21
622.82219510669665
 31
0.0
  0
LINE
  5
7C65
  8
0
 10
10.0
 20
623.82219510669665
 30
0.0
 11
12.0
 21
623.82219510669665
 31
0.0
  0
LINE
  5
7C66
  8
0
 10
10.0
 20
619.82219510669665
 30
0.0
 11
11.0
 21
619.82219510669665
 31
0.0
  0
LINE
  5
7C67
  8
0
 10
10.0
 20
620.82219510669665
 30
0.0
 11
11.0
 21
620.82219510669665
 31
0.0
  0
LINE
  5
7C68
  8
0
 10
10.0
 20
628.82219510669665
 30
0.0
 11
13.0
 21
628.82219510669665
 31
0.0
  0
LINE
  5
7C69
  8
0
 10
10.0
 20
630.82219510669665
 30
0.0
 11
11.0
 21
630.82219510669665
 31
0.0
  0
LINE
  5
7C6A
  8
0
 10
10.0
 20
631.82219510669665
 30
0.0
 11
11.0
 21
631.82219510669665
 31
0.0
  0
LINE
  5
7C6B
  8
0
 10
10.0
 20
635.82219510669665
 30
0.0
 11
11.0
 21
635.82219510669665
 31
0.0
  0
LINE
  5
7C6C
  8
0
 10
10.0
 20
634.82219510669665
 30
0.0
 11
11.0
 21
634.82219510669665
 31
0.0
  0
LINE
  5
7C6D
  8
0
 10
10.0
 20
632.82219510669665
 30
0.0
 11
11.0
 21
632.82219510669665
 31
0.0
  0
LINE
  5
7C6E
  8
0
 10
10.0
 20
633.82219510669665
 30
0.0
 11
12.0
 21
633.82219510669665
 31
0.0
  0
LINE
  5
7C6F
  8
0
 10
10.0
 20
629.82219510669665
 30
0.0
 11
11.0
 21
629.82219510669665
 31
0.0
  0
TEXT
  5
7C70
  8
0
 10
14.997089773706341
 20
627.82219510669665
 30
0.0
 40
2.0
  1
38
 72
     2
 11
18.330423107039682
 21
628.82219510669665
 31
0.0
 73
     2
  0
LINE
  5
7C71
  8
0
 10
10.0
 20
638.82219510669665
 30
0.0
 11
13.0
 21
638.82219510669665
 31
0.0
  0
LINE
  5
7C72
  8
0
 10
10.0
 20
639.82219510669665
 30
0.0
 11
11.0
 21
639.82219510669665
 31
0.0
  0
LINE
  5
7C73
  8
0
 10
10.0
 20
640.82219510669665
 30
0.0
 11
11.0
 21
640.82219510669665
 31
0.0
  0
LINE
  5
7C74
  8
0
 10
10.0
 20
641.82219510669665
 30
0.0
 11
11.0
 21
641.82219510669665
 31
0.0
  0
LINE
  5
7C75
  8
0
 10
10.0
 20
642.82219510669677
 30
0.0
 11
11.0
 21
642.82219510669677
 31
0.0
  0
LINE
  5
7C76
  8
0
 10
10.0
 20
644.82219510669665
 30
0.0
 11
11.0
 21
644.82219510669665
 31
0.0
  0
LINE
  5
7C77
  8
0
 10
10.0
 20
643.82219510669665
 30
0.0
 11
12.0
 21
643.82219510669665
 31
0.0
  0
LINE
  5
7C78
  8
0
 10
10.0
 20
637.82219510669665
 30
0.0
 11
11.0
 21
637.82219510669665
 31
0.0
  0
LINE
  5
7C79
  8
0
 10
10.0
 20
636.82219510669665
 30
0.0
 11
11.0
 21
636.82219510669665
 31
0.0
  0
LINE
  5
7C7A
  8
0
 10
10.0
 20
648.82219510669665
 30
0.0
 11
13.0
 21
648.82219510669665
 31
0.0
  0
LINE
  5
7C7B
  8
0
 10
10.0
 20
647.82219510669665
 30
0.0
 11
11.0
 21
647.82219510669665
 31
0.0
  0
LINE
  5
7C7C
  8
0
 10
10.0
 20
646.82219510669677
 30
0.0
 11
11.0
 21
646.82219510669677
 31
0.0
  0
LINE
  5
7C7D
  8
0
 10
10.0
 20
649.82219510669665
 30
0.0
 11
11.0
 21
649.82219510669665
 31
0.0
  0
LINE
  5
7C7E
  8
0
 10
10.0
 20
650.82219510669677
 30
0.0
 11
11.0
 21
650.82219510669677
 31
0.0
  0
LINE
  5
7C7F
  8
0
 10
10.0
 20
651.82219510669665
 30
0.0
 11
11.0
 21
651.82219510669665
 31
0.0
  0
LINE
  5
7C80
  8
0
 10
10.0
 20
652.82219510669665
 30
0.0
 11
11.0
 21
652.82219510669665
 31
0.0
  0
LINE
  5
7C81
  8
0
 10
10.0
 20
653.82219510669665
 30
0.0
 11
12.0
 21
653.82219510669665
 31
0.0
  0
LINE
  5
7C82
  8
0
 10
10.0
 20
645.82219510669665
 30
0.0
 11
11.0
 21
645.82219510669665
 31
0.0
  0
TEXT
  5
7C83
  8
0
 10
14.99708977370635
 20
637.82219510669677
 30
0.0
 40
2.0
  1
37
 72
     2
 11
18.330423107039682
 21
638.82219510669665
 31
0.0
 73
     2
  0
TEXT
  5
7C84
  8
0
 10
14.997089773706341
 20
647.82219510669665
 30
0.0
 40
2.0
  1
36
 72
     2
 11
18.330423107039682
 21
648.82219510669665
 31
0.0
 73
     2
  0
LINE
  5
7C85
  8
0
 10
10.0
 20
658.82219510669665
 30
0.0
 11
13.0
 21
658.82219510669665
 31
0.0
  0
LINE
  5
7C86
  8
0
 10
10.0
 20
662.82219510669665
 30
0.0
 11
11.0
 21
662.82219510669665
 31
0.0
  0
LINE
  5
7C87
  8
0
 10
10.0
 20
657.82219510669665
 30
0.0
 11
11.0
 21
657.82219510669665
 31
0.0
  0
LINE
  5
7C88
  8
0
 10
10.0
 20
656.82219510669665
 30
0.0
 11
11.0
 21
656.82219510669665
 31
0.0
  0
LINE
  5
7C89
  8
0
 10
10.0
 20
655.82219510669665
 30
0.0
 11
11.0
 21
655.82219510669665
 31
0.0
  0
LINE
  5
7C8A
  8
0
 10
10.0
 20
654.82219510669665
 30
0.0
 11
11.0
 21
654.82219510669665
 31
0.0
  0
LINE
  5
7C8B
  8
0
 10
10.0
 20
659.82219510669665
 30
0.0
 11
11.0
 21
659.82219510669665
 31
0.0
  0
LINE
  5
7C8C
  8
0
 10
10.0
 20
660.82219510669665
 30
0.0
 11
11.0
 21
660.82219510669665
 31
0.0
  0
LINE
  5
7C8D
  8
0
 10
10.0
 20
661.82219510669665
 30
0.0
 11
11.0
 21
661.82219510669665
 31
0.0
  0
LINE
  5
7C8E
  8
0
 10
10.0
 20
668.82219510669665
 30
0.0
 11
13.0
 21
668.82219510669665
 31
0.0
  0
LINE
  5
7C8F
  8
0
 10
10.0
 20
667.82219510669677
 30
0.0
 11
11.0
 21
667.82219510669677
 31
0.0
  0
LINE
  5
7C90
  8
0
 10
10.0
 20
666.82219510669665
 30
0.0
 11
11.0
 21
666.82219510669665
 31
0.0
  0
LINE
  5
7C91
  8
0
 10
10.0
 20
665.82219510669665
 30
0.0
 11
11.0
 21
665.82219510669665
 31
0.0
  0
LINE
  5
7C92
  8
0
 10
10.0
 20
664.82219510669665
 30
0.0
 11
11.0
 21
664.82219510669665
 31
0.0
  0
LINE
  5
7C93
  8
0
 10
10.0
 20
669.82219510669665
 30
0.0
 11
11.0
 21
669.82219510669665
 31
0.0
  0
LINE
  5
7C94
  8
0
 10
10.0
 20
670.82219510669665
 30
0.0
 11
11.0
 21
670.82219510669665
 31
0.0
  0
LINE
  5
7C95
  8
0
 10
10.0
 20
663.82219510669665
 30
0.0
 11
12.0
 21
663.82219510669665
 31
0.0
  0
TEXT
  5
7C96
  8
0
 10
14.997089773706341
 20
657.82219510669665
 30
0.0
 40
2.0
  1
35
 72
     2
 11
18.330423107039682
 21
658.82219510669665
 31
0.0
 73
     2
  0
TEXT
  5
7C97
  8
0
 10
14.99708977370635
 20
667.82219510669665
 30
0.0
 40
2.0
  1
34
 72
     2
 11
18.330423107039682
 21
668.82219510669665
 31
0.0
 73
     2
  0
TEXT
  5
7C98
  8
0
 10
14.997089773706341
 20
687.82219510669677
 30
0.0
 40
2.0
  1
32
 72
     2
 11
18.330423107039682
 21
688.82219510669665
 31
0.0
 73
     2
  0
LINE
  5
7C99
  8
0
 10
10.0
 20
678.82219510669665
 30
0.0
 11
13.0
 21
678.82219510669665
 31
0.0
  0
LINE
  5
7C9A
  8
0
 10
10.0
 20
679.82219510669665
 30
0.0
 11
11.0
 21
679.82219510669665
 31
0.0
  0
LINE
  5
7C9B
  8
0
 10
10.0
 20
674.82219510669665
 30
0.0
 11
11.0
 21
674.82219510669665
 31
0.0
  0
LINE
  5
7C9C
  8
0
 10
10.0
 20
671.82219510669677
 30
0.0
 11
11.0
 21
671.82219510669677
 31
0.0
  0
LINE
  5
7C9D
  8
0
 10
10.0
 20
672.82219510669665
 30
0.0
 11
11.0
 21
672.82219510669665
 31
0.0
  0
LINE
  5
7C9E
  8
0
 10
10.0
 20
677.82219510669665
 30
0.0
 11
11.0
 21
677.82219510669665
 31
0.0
  0
LINE
  5
7C9F
  8
0
 10
10.0
 20
676.82219510669665
 30
0.0
 11
11.0
 21
676.82219510669665
 31
0.0
  0
LINE
  5
7CA0
  8
0
 10
10.0
 20
675.82219510669677
 30
0.0
 11
11.0
 21
675.82219510669677
 31
0.0
  0
LINE
  5
7CA1
  8
0
 10
10.0
 20
673.82219510669665
 30
0.0
 11
12.0
 21
673.82219510669665
 31
0.0
  0
LINE
  5
7CA2
  8
0
 10
10.0
 20
688.82219510669665
 30
0.0
 11
13.0
 21
688.82219510669665
 31
0.0
  0
LINE
  5
7CA3
  8
0
 10
10.0
 20
687.82219510669654
 30
0.0
 11
11.0
 21
687.82219510669654
 31
0.0
  0
LINE
  5
7CA4
  8
0
 10
10.0
 20
685.82219510669665
 30
0.0
 11
11.0
 21
685.82219510669665
 31
0.0
  0
LINE
  5
7CA5
  8
0
 10
10.0
 20
684.82219510669665
 30
0.0
 11
11.0
 21
684.82219510669665
 31
0.0
  0
LINE
  5
7CA6
  8
0
 10
10.0
 20
680.82219510669665
 30
0.0
 11
11.0
 21
680.82219510669665
 31
0.0
  0
LINE
  5
7CA7
  8
0
 10
10.0
 20
681.82219510669665
 30
0.0
 11
11.0
 21
681.82219510669665
 31
0.0
  0
LINE
  5
7CA8
  8
0
 10
10.0
 20
682.82219510669665
 30
0.0
 11
11.0
 21
682.82219510669665
 31
0.0
  0
LINE
  5
7CA9
  8
0
 10
10.0
 20
686.82219510669665
 30
0.0
 11
11.0
 21
686.82219510669665
 31
0.0
  0
LINE
  5
7CAA
  8
0
 10
10.0
 20
683.82219510669665
 30
0.0
 11
12.0
 21
683.82219510669665
 31
0.0
  0
TEXT
  5
7CAB
  8
0
 10
14.997089773706341
 20
677.82219510669665
 30
0.0
 40
2.0
  1
33
 72
     2
 11
18.330423107039682
 21
678.82219510669665
 31
0.0
 73
     2
  0
LINE
  5
7CAC
  8
0
 10
10.0
 20
695.82219510669654
 30
0.0
 11
11.0
 21
695.82219510669654
 31
0.0
  0
LINE
  5
7CAD
  8
0
 10
10.0
 20
696.82219510669677
 30
0.0
 11
11.0
 21
696.82219510669677
 31
0.0
  0
LINE
  5
7CAE
  8
0
 10
10.0
 20
694.82219510669654
 30
0.0
 11
11.0
 21
694.82219510669654
 31
0.0
  0
LINE
  5
7CAF
  8
0
 10
10.0
 20
689.82219510669654
 30
0.0
 11
11.0
 21
689.82219510669654
 31
0.0
  0
LINE
  5
7CB0
  8
0
 10
10.0
 20
690.82219510669654
 30
0.0
 11
11.0
 21
690.82219510669654
 31
0.0
  0
LINE
  5
7CB1
  8
0
 10
10.0
 20
691.82219510669654
 30
0.0
 11
11.0
 21
691.82219510669654
 31
0.0
  0
LINE
  5
7CB2
  8
0
 10
10.0
 20
692.82219510669677
 30
0.0
 11
11.0
 21
692.82219510669677
 31
0.0
  0
LINE
  5
7CB3
  8
0
 10
10.0
 20
693.82219510669654
 30
0.0
 11
12.0
 21
693.82219510669654
 31
0.0
  0
LINE
  5
7CB4
  8
0
 10
10.0
 20
698.82219510669654
 30
0.0
 11
13.0
 21
698.82219510669654
 31
0.0
  0
LINE
  5
7CB5
  8
0
 10
10.0
 20
704.82219510669654
 30
0.0
 11
11.0
 21
704.82219510669654
 31
0.0
  0
LINE
  5
7CB6
  8
0
 10
10.0
 20
705.82219510669665
 30
0.0
 11
11.0
 21
705.82219510669665
 31
0.0
  0
LINE
  5
7CB7
  8
0
 10
10.0
 20
703.82219510669654
 30
0.0
 11
12.0
 21
703.82219510669654
 31
0.0
  0
LINE
  5
7CB8
  8
0
 10
10.0
 20
697.82219510669654
 30
0.0
 11
11.0
 21
697.82219510669654
 31
0.0
  0
LINE
  5
7CB9
  8
0
 10
10.0
 20
702.82219510669654
 30
0.0
 11
11.0
 21
702.82219510669654
 31
0.0
  0
LINE
  5
7CBA
  8
0
 10
10.0
 20
701.82219510669654
 30
0.0
 11
11.0
 21
701.82219510669654
 31
0.0
  0
LINE
  5
7CBB
  8
0
 10
10.0
 20
700.82219510669677
 30
0.0
 11
11.0
 21
700.82219510669677
 31
0.0
  0
LINE
  5
7CBC
  8
0
 10
10.0
 20
699.82219510669654
 30
0.0
 11
11.0
 21
699.82219510669654
 31
0.0
  0
TEXT
  5
7CBD
  8
0
 10
15.66375644037301
 20
697.82219510669654
 30
0.0
 40
2.0
  1
31
 72
     2
 11
18.330423107039682
 21
698.82219510669654
 31
0.0
 73
     2
  0
LINE
  5
7CBE
  8
0
 10
10.0
 20
706.82219510669654
 30
0.0
 11
11.0
 21
706.82219510669654
 31
0.0
  0
LINE
  5
7CBF
  8
0
 10
10.0
 20
707.82219510669654
 30
0.0
 11
11.0
 21
707.82219510669654
 31
0.0
  0
LINE
  5
7CC0
  8
0
 10
10.0
 20
512.82219510669677
 30
0.0
 11
11.0
 21
512.82219510669677
 31
0.0
  0
LINE
  5
7CC1
  8
0
 10
10.0
 20
511.82219510669671
 30
0.0
 11
11.0
 21
511.82219510669671
 31
0.0
  0
LINE
  5
7CC2
  8
0
 10
10.0
 20
510.8221951066966
 30
0.0
 11
11.0
 21
510.8221951066966
 31
0.0
  0
LINE
  5
7CC3
  8
0
 10
10.0
 20
513.82219510669665
 30
0.0
 11
12.0
 21
513.82219510669665
 31
0.0
  0
LINE
  5
7CC4
  8
0
 10
10.0
 20
509.82219510669671
 30
0.0
 11
11.0
 21
509.82219510669671
 31
0.0
  0
TEXT
  5
7CC5
  8
0
 10
15.330423107039691
 20
507.82219510669671
 30
0.0
 40
2.0
  1
50
 72
     2
 11
18.330423107039689
 21
508.82219510669682
 31
0.0
 73
     2
  0
LINE
  5
7CC6
  8
0
 10
10.0
 20
518.82219510669665
 30
0.0
 11
13.0
 21
518.82219510669665
 31
0.0
  0
LINE
  5
7CC7
  8
0
 10
10.0
 20
520.82219510669665
 30
0.0
 11
11.0
 21
520.82219510669665
 31
0.0
  0
LINE
  5
7CC8
  8
0
 10
10.0
 20
519.82219510669665
 30
0.0
 11
11.0
 21
519.82219510669665
 31
0.0
  0
LINE
  5
7CC9
  8
0
 10
10.0
 20
522.82219510669665
 30
0.0
 11
11.0
 21
522.82219510669665
 31
0.0
  0
LINE
  5
7CCA
  8
0
 10
10.0
 20
521.82219510669677
 30
0.0
 11
11.0
 21
521.82219510669677
 31
0.0
  0
LINE
  5
7CCB
  8
0
 10
10.0
 20
514.82219510669665
 30
0.0
 11
11.0
 21
514.82219510669665
 31
0.0
  0
LINE
  5
7CCC
  8
0
 10
10.0
 20
515.82219510669665
 30
0.0
 11
11.0
 21
515.82219510669665
 31
0.0
  0
LINE
  5
7CCD
  8
0
 10
10.0
 20
516.82219510669665
 30
0.0
 11
11.0
 21
516.82219510669665
 31
0.0
  0
LINE
  5
7CCE
  8
0
 10
10.0
 20
517.82219510669677
 30
0.0
 11
11.0
 21
517.82219510669677
 31
0.0
  0
LINE
  5
7CCF
  8
0
 10
10.0
 20
528.82219510669665
 30
0.0
 11
13.0
 21
528.82219510669665
 31
0.0
  0
LINE
  5
7CD0
  8
0
 10
10.0
 20
529.82219510669677
 30
0.0
 11
11.0
 21
529.82219510669677
 31
0.0
  0
LINE
  5
7CD1
  8
0
 10
10.0
 20
531.82219510669665
 30
0.0
 11
11.0
 21
531.82219510669665
 31
0.0
  0
LINE
  5
7CD2
  8
0
 10
10.0
 20
530.82219510669665
 30
0.0
 11
11.0
 21
530.82219510669665
 31
0.0
  0
LINE
  5
7CD3
  8
0
 10
10.0
 20
523.82219510669665
 30
0.0
 11
12.0
 21
523.82219510669665
 31
0.0
  0
LINE
  5
7CD4
  8
0
 10
10.0
 20
524.82219510669665
 30
0.0
 11
11.0
 21
524.82219510669665
 31
0.0
  0
LINE
  5
7CD5
  8
0
 10
10.0
 20
525.82219510669677
 30
0.0
 11
11.0
 21
525.82219510669677
 31
0.0
  0
LINE
  5
7CD6
  8
0
 10
10.0
 20
526.82219510669665
 30
0.0
 11
11.0
 21
526.82219510669665
 31
0.0
  0
LINE
  5
7CD7
  8
0
 10
10.0
 20
527.82219510669665
 30
0.0
 11
11.0
 21
527.82219510669665
 31
0.0
  0
TEXT
  5
7CD8
  8
0
 10
14.997089773706341
 20
517.82219510669677
 30
0.0
 40
2.0
  1
49
 72
     2
 11
18.330423107039682
 21
518.82219510669665
 31
0.0
 73
     2
  0
TEXT
  5
7CD9
  8
0
 10
14.997089773706341
 20
527.82219510669665
 30
0.0
 40
2.0
  1
48
 72
     2
 11
18.330423107039682
 21
528.82219510669665
 31
0.0
 73
     2
  0
TEXT
  5
7CDA
  8
0
 10
14.997089773706341
 20
547.82219510669665
 30
0.0
 40
2.0
  1
46
 72
     2
 11
18.330423107039682
 21
548.82219510669665
 31
0.0
 73
     2
  0
LINE
  5
7CDB
  8
0
 10
10.0
 20
538.82219510669665
 30
0.0
 11
13.0
 21
538.82219510669665
 31
0.0
  0
LINE
  5
7CDC
  8
0
 10
10.0
 20
533.82219510669677
 30
0.0
 11
12.0
 21
533.82219510669677
 31
0.0
  0
LINE
  5
7CDD
  8
0
 10
10.0
 20
532.82219510669665
 30
0.0
 11
11.0
 21
532.82219510669665
 31
0.0
  0
LINE
  5
7CDE
  8
0
 10
10.0
 20
534.82219510669665
 30
0.0
 11
11.0
 21
534.82219510669665
 31
0.0
  0
LINE
  5
7CDF
  8
0
 10
10.0
 20
535.82219510669665
 30
0.0
 11
11.0
 21
535.82219510669665
 31
0.0
  0
LINE
  5
7CE0
  8
0
 10
10.0
 20
536.82219510669665
 30
0.0
 11
11.0
 21
536.82219510669665
 31
0.0
  0
LINE
  5
7CE1
  8
0
 10
10.0
 20
537.82219510669677
 30
0.0
 11
11.0
 21
537.82219510669677
 31
0.0
  0
LINE
  5
7CE2
  8
0
 10
10.0
 20
540.82219510669665
 30
0.0
 11
11.0
 21
540.82219510669665
 31
0.0
  0
LINE
  5
7CE3
  8
0
 10
10.0
 20
539.82219510669665
 30
0.0
 11
11.0
 21
539.82219510669665
 31
0.0
  0
LINE
  5
7CE4
  8
0
 10
10.0
 20
548.82219510669665
 30
0.0
 11
13.0
 21
548.82219510669665
 31
0.0
  0
LINE
  5
7CE5
  8
0
 10
10.0
 20
545.82219510669665
 30
0.0
 11
11.0
 21
545.82219510669665
 31
0.0
  0
LINE
  5
7CE6
  8
0
 10
10.0
 20
546.82219510669677
 30
0.0
 11
11.0
 21
546.82219510669677
 31
0.0
  0
LINE
  5
7CE7
  8
0
 10
10.0
 20
547.82219510669665
 30
0.0
 11
11.0
 21
547.82219510669665
 31
0.0
  0
LINE
  5
7CE8
  8
0
 10
10.0
 20
543.82219510669665
 30
0.0
 11
12.0
 21
543.82219510669665
 31
0.0
  0
LINE
  5
7CE9
  8
0
 10
10.0
 20
544.82219510669665
 30
0.0
 11
11.0
 21
544.82219510669665
 31
0.0
  0
LINE
  5
7CEA
  8
0
 10
10.0
 20
542.82219510669677
 30
0.0
 11
11.0
 21
542.82219510669677
 31
0.0
  0
LINE
  5
7CEB
  8
0
 10
10.0
 20
541.82219510669665
 30
0.0
 11
11.0
 21
541.82219510669665
 31
0.0
  0
TEXT
  5
7CEC
  8
0
 10
14.99708977370635
 20
537.82219510669677
 30
0.0
 40
2.0
  1
47
 72
     2
 11
18.330423107039682
 21
538.82219510669665
 31
0.0
 73
     2
  0
LINE
  5
7CED
  8
0
 10
10.0
 20
554.82219510669677
 30
0.0
 11
11.0
 21
554.82219510669677
 31
0.0
  0
LINE
  5
7CEE
  8
0
 10
10.0
 20
555.82219510669665
 30
0.0
 11
11.0
 21
555.82219510669665
 31
0.0
  0
LINE
  5
7CEF
  8
0
 10
10.0
 20
556.82219510669665
 30
0.0
 11
11.0
 21
556.82219510669665
 31
0.0
  0
LINE
  5
7CF0
  8
0
 10
10.0
 20
557.82219510669665
 30
0.0
 11
11.0
 21
557.82219510669665
 31
0.0
  0
LINE
  5
7CF1
  8
0
 10
10.0
 20
553.82219510669665
 30
0.0
 11
12.0
 21
553.82219510669665
 31
0.0
  0
LINE
  5
7CF2
  8
0
 10
10.0
 20
552.82219510669665
 30
0.0
 11
11.0
 21
552.82219510669665
 31
0.0
  0
LINE
  5
7CF3
  8
0
 10
10.0
 20
551.82219510669665
 30
0.0
 11
11.0
 21
551.82219510669665
 31
0.0
  0
LINE
  5
7CF4
  8
0
 10
10.0
 20
550.82219510669677
 30
0.0
 11
11.0
 21
550.82219510669677
 31
0.0
  0
LINE
  5
7CF5
  8
0
 10
10.0
 20
549.82219510669665
 30
0.0
 11
11.0
 21
549.82219510669665
 31
0.0
  0
LINE
  5
7CF6
  8
0
 10
10.0
 20
558.82219510669677
 30
0.0
 11
13.0
 21
558.82219510669677
 31
0.0
  0
LINE
  5
7CF7
  8
0
 10
10.0
 20
563.82219510669665
 30
0.0
 11
12.0
 21
563.82219510669665
 31
0.0
  0
LINE
  5
7CF8
  8
0
 10
10.0
 20
564.82219510669665
 30
0.0
 11
11.0
 21
564.82219510669665
 31
0.0
  0
LINE
  5
7CF9
  8
0
 10
10.0
 20
565.82219510669665
 30
0.0
 11
11.0
 21
565.82219510669665
 31
0.0
  0
LINE
  5
7CFA
  8
0
 10
10.0
 20
566.82219510669665
 30
0.0
 11
11.0
 21
566.82219510669665
 31
0.0
  0
LINE
  5
7CFB
  8
0
 10
10.0
 20
561.82219510669665
 30
0.0
 11
11.0
 21
561.82219510669665
 31
0.0
  0
LINE
  5
7CFC
  8
0
 10
10.0
 20
560.82219510669665
 30
0.0
 11
11.0
 21
560.82219510669665
 31
0.0
  0
LINE
  5
7CFD
  8
0
 10
10.0
 20
559.82219510669665
 30
0.0
 11
11.0
 21
559.82219510669665
 31
0.0
  0
LINE
  5
7CFE
  8
0
 10
10.0
 20
562.82219510669677
 30
0.0
 11
11.0
 21
562.82219510669677
 31
0.0
  0
TEXT
  5
7CFF
  8
0
 10
14.997089773706341
 20
557.82219510669665
 30
0.0
 40
2.0
  1
45
 72
     2
 11
18.330423107039682
 21
558.82219510669677
 31
0.0
 73
     2
  0
LINE
  5
7D00
  8
0
 10
10.0
 20
568.82219510669665
 30
0.0
 11
13.0
 21
568.82219510669665
 31
0.0
  0
LINE
  5
7D01
  8
0
 10
10.0
 20
573.82219510669665
 30
0.0
 11
12.0
 21
573.82219510669665
 31
0.0
  0
LINE
  5
7D02
  8
0
 10
10.0
 20
572.82219510669665
 30
0.0
 11
11.0
 21
572.82219510669665
 31
0.0
  0
LINE
  5
7D03
  8
0
 10
10.0
 20
571.82219510669677
 30
0.0
 11
11.0
 21
571.82219510669677
 31
0.0
  0
LINE
  5
7D04
  8
0
 10
10.0
 20
574.82219510669665
 30
0.0
 11
11.0
 21
574.82219510669665
 31
0.0
  0
LINE
  5
7D05
  8
0
 10
10.0
 20
570.82219510669665
 30
0.0
 11
11.0
 21
570.82219510669665
 31
0.0
  0
LINE
  5
7D06
  8
0
 10
10.0
 20
569.82219510669665
 30
0.0
 11
11.0
 21
569.82219510669665
 31
0.0
  0
LINE
  5
7D07
  8
0
 10
10.0
 20
567.82219510669677
 30
0.0
 11
11.0
 21
567.82219510669677
 31
0.0
  0
LINE
  5
7D08
  8
0
 10
10.0
 20
578.82219510669665
 30
0.0
 11
13.0
 21
578.82219510669665
 31
0.0
  0
LINE
  5
7D09
  8
0
 10
10.0
 20
583.82219510669665
 30
0.0
 11
12.0
 21
583.82219510669665
 31
0.0
  0
LINE
  5
7D0A
  8
0
 10
10.0
 20
582.82219510669665
 30
0.0
 11
11.0
 21
582.82219510669665
 31
0.0
  0
LINE
  5
7D0B
  8
0
 10
10.0
 20
581.82219510669665
 30
0.0
 11
11.0
 21
581.82219510669665
 31
0.0
  0
LINE
  5
7D0C
  8
0
 10
10.0
 20
580.82219510669665
 30
0.0
 11
11.0
 21
580.82219510669665
 31
0.0
  0
LINE
  5
7D0D
  8
0
 10
10.0
 20
575.82219510669665
 30
0.0
 11
11.0
 21
575.82219510669665
 31
0.0
  0
LINE
  5
7D0E
  8
0
 10
10.0
 20
576.82219510669665
 30
0.0
 11
11.0
 21
576.82219510669665
 31
0.0
  0
LINE
  5
7D0F
  8
0
 10
10.0
 20
577.82219510669665
 30
0.0
 11
11.0
 21
577.82219510669665
 31
0.0
  0
LINE
  5
7D10
  8
0
 10
10.0
 20
579.82219510669665
 30
0.0
 11
11.0
 21
579.82219510669665
 31
0.0
  0
TEXT
  5
7D11
  8
0
 10
14.99708977370635
 20
567.82219510669665
 30
0.0
 40
2.0
  1
44
 72
     2
 11
18.330423107039682
 21
568.82219510669665
 31
0.0
 73
     2
  0
TEXT
  5
7D12
  8
0
 10
14.997089773706341
 20
577.82219510669665
 30
0.0
 40
2.0
  1
43
 72
     2
 11
18.330423107039682
 21
578.82219510669665
 31
0.0
 73
     2
  0
LINE
  5
7D13
  8
0
 10
10.0
 20
588.82219510669665
 30
0.0
 11
13.0
 21
588.82219510669665
 31
0.0
  0
LINE
  5
7D14
  8
0
 10
10.0
 20
592.82219510669677
 30
0.0
 11
11.0
 21
592.82219510669677
 31
0.0
  0
LINE
  5
7D15
  8
0
 10
10.0
 20
591.82219510669665
 30
0.0
 11
11.0
 21
591.82219510669665
 31
0.0
  0
LINE
  5
7D16
  8
0
 10
10.0
 20
590.82219510669665
 30
0.0
 11
11.0
 21
590.82219510669665
 31
0.0
  0
LINE
  5
7D17
  8
0
 10
10.0
 20
589.82219510669665
 30
0.0
 11
11.0
 21
589.82219510669665
 31
0.0
  0
LINE
  5
7D18
  8
0
 10
10.0
 20
586.82219510669665
 30
0.0
 11
11.0
 21
586.82219510669665
 31
0.0
  0
LINE
  5
7D19
  8
0
 10
10.0
 20
584.82219510669665
 30
0.0
 11
11.0
 21
584.82219510669665
 31
0.0
  0
LINE
  5
7D1A
  8
0
 10
10.0
 20
585.82219510669665
 30
0.0
 11
11.0
 21
585.82219510669665
 31
0.0
  0
LINE
  5
7D1B
  8
0
 10
10.0
 20
587.82219510669665
 30
0.0
 11
11.0
 21
587.82219510669665
 31
0.0
  0
LINE
  5
7D1C
  8
0
 10
10.0
 20
598.82219510669665
 30
0.0
 11
13.0
 21
598.82219510669665
 31
0.0
  0
LINE
  5
7D1D
  8
0
 10
10.0
 20
599.82219510669665
 30
0.0
 11
11.0
 21
599.82219510669665
 31
0.0
  0
LINE
  5
7D1E
  8
0
 10
10.0
 20
600.82219510669677
 30
0.0
 11
11.0
 21
600.82219510669677
 31
0.0
  0
LINE
  5
7D1F
  8
0
 10
10.0
 20
601.82219510669665
 30
0.0
 11
11.0
 21
601.82219510669665
 31
0.0
  0
LINE
  5
7D20
  8
0
 10
10.0
 20
597.82219510669665
 30
0.0
 11
11.0
 21
597.82219510669665
 31
0.0
  0
LINE
  5
7D21
  8
0
 10
10.0
 20
593.82219510669665
 30
0.0
 11
12.0
 21
593.82219510669665
 31
0.0
  0
LINE
  5
7D22
  8
0
 10
10.0
 20
594.82219510669665
 30
0.0
 11
11.0
 21
594.82219510669665
 31
0.0
  0
LINE
  5
7D23
  8
0
 10
10.0
 20
596.82219510669677
 30
0.0
 11
11.0
 21
596.82219510669677
 31
0.0
  0
LINE
  5
7D24
  8
0
 10
10.0
 20
595.82219510669665
 30
0.0
 11
11.0
 21
595.82219510669665
 31
0.0
  0
TEXT
  5
7D25
  8
0
 10
14.997089773706341
 20
587.82219510669677
 30
0.0
 40
2.0
  1
42
 72
     2
 11
18.330423107039682
 21
588.82219510669665
 31
0.0
 73
     2
  0
TEXT
  5
7D26
  8
0
 10
15.66375644037301
 20
597.82219510669665
 30
0.0
 40
2.0
  1
41
 72
     2
 11
18.330423107039682
 21
598.82219510669665
 31
0.0
 73
     2
  0
LINE
  5
7D27
  8
0
 10
10.0
 20
607.82219510669665
 30
0.0
 11
11.0
 21
607.82219510669665
 31
0.0
  0
LINE
  5
7D28
  8
0
 10
10.0
 20
606.82219510669665
 30
0.0
 11
11.0
 21
606.82219510669665
 31
0.0
  0
LINE
  5
7D29
  8
0
 10
10.0
 20
602.82219510669665
 30
0.0
 11
11.0
 21
602.82219510669665
 31
0.0
  0
LINE
  5
7D2A
  8
0
 10
10.0
 20
603.82219510669665
 30
0.0
 11
12.0
 21
603.82219510669665
 31
0.0
  0
LINE
  5
7D2B
  8
0
 10
10.0
 20
605.82219510669665
 30
0.0
 11
11.0
 21
605.82219510669665
 31
0.0
  0
LINE
  5
7D2C
  8
0
 10
10.0
 20
604.82219510669665
 30
0.0
 11
11.0
 21
604.82219510669665
 31
0.0
  0
LINE
  5
7D2D
  8
0
 10
288.0
 20
509.82219510669671
 30
0.0
 11
287.0
 21
509.82219510669671
 31
0.0
  0
LINE
  5
7D2E
  8
0
 10
288.0
 20
518.82219510669665
 30
0.0
 11
285.0
 21
518.82219510669665
 31
0.0
  0
LINE
  5
7D2F
  8
0
 10
288.0
 20
517.82219510669677
 30
0.0
 11
287.0
 21
517.82219510669677
 31
0.0
  0
LINE
  5
7D30
  8
0
 10
288.0
 20
516.82219510669665
 30
0.0
 11
287.0
 21
516.82219510669665
 31
0.0
  0
LINE
  5
7D31
  8
0
 10
288.0
 20
515.82219510669665
 30
0.0
 11
287.0
 21
515.82219510669665
 31
0.0
  0
LINE
  5
7D32
  8
0
 10
288.0
 20
514.82219510669665
 30
0.0
 11
287.0
 21
514.82219510669665
 31
0.0
  0
LINE
  5
7D33
  8
0
 10
288.0
 20
513.82219510669665
 30
0.0
 11
286.0
 21
513.82219510669665
 31
0.0
  0
LINE
  5
7D34
  8
0
 10
288.0
 20
510.8221951066966
 30
0.0
 11
287.0
 21
510.8221951066966
 31
0.0
  0
LINE
  5
7D35
  8
0
 10
288.0
 20
511.82219510669671
 30
0.0
 11
287.0
 21
511.82219510669671
 31
0.0
  0
LINE
  5
7D36
  8
0
 10
288.0
 20
512.82219510669677
 30
0.0
 11
287.0
 21
512.82219510669677
 31
0.0
  0
LINE
  5
7D37
  8
0
 10
288.0
 20
526.82219510669665
 30
0.0
 11
287.0
 21
526.82219510669665
 31
0.0
  0
LINE
  5
7D38
  8
0
 10
288.0
 20
525.82219510669677
 30
0.0
 11
287.0
 21
525.82219510669677
 31
0.0
  0
LINE
  5
7D39
  8
0
 10
288.0
 20
524.82219510669665
 30
0.0
 11
287.0
 21
524.82219510669665
 31
0.0
  0
LINE
  5
7D3A
  8
0
 10
288.0
 20
523.82219510669665
 30
0.0
 11
286.0
 21
523.82219510669665
 31
0.0
  0
LINE
  5
7D3B
  8
0
 10
288.0
 20
521.82219510669677
 30
0.0
 11
287.0
 21
521.82219510669677
 31
0.0
  0
LINE
  5
7D3C
  8
0
 10
288.0
 20
522.82219510669665
 30
0.0
 11
287.0
 21
522.82219510669665
 31
0.0
  0
LINE
  5
7D3D
  8
0
 10
288.0
 20
519.82219510669665
 30
0.0
 11
287.0
 21
519.82219510669665
 31
0.0
  0
LINE
  5
7D3E
  8
0
 10
288.0
 20
520.82219510669665
 30
0.0
 11
287.0
 21
520.82219510669665
 31
0.0
  0
LINE
  5
7D3F
  8
0
 10
288.0
 20
528.82219510669665
 30
0.0
 11
285.0
 21
528.82219510669665
 31
0.0
  0
LINE
  5
7D40
  8
0
 10
288.0
 20
535.82219510669665
 30
0.0
 11
287.0
 21
535.82219510669665
 31
0.0
  0
LINE
  5
7D41
  8
0
 10
288.0
 20
534.82219510669665
 30
0.0
 11
287.0
 21
534.82219510669665
 31
0.0
  0
LINE
  5
7D42
  8
0
 10
288.0
 20
532.82219510669665
 30
0.0
 11
287.0
 21
532.82219510669665
 31
0.0
  0
LINE
  5
7D43
  8
0
 10
288.0
 20
533.82219510669677
 30
0.0
 11
286.0
 21
533.82219510669677
 31
0.0
  0
LINE
  5
7D44
  8
0
 10
288.0
 20
527.82219510669665
 30
0.0
 11
287.0
 21
527.82219510669665
 31
0.0
  0
LINE
  5
7D45
  8
0
 10
288.0
 20
530.82219510669665
 30
0.0
 11
287.0
 21
530.82219510669665
 31
0.0
  0
LINE
  5
7D46
  8
0
 10
288.0
 20
531.82219510669665
 30
0.0
 11
287.0
 21
531.82219510669665
 31
0.0
  0
LINE
  5
7D47
  8
0
 10
288.0
 20
529.82219510669677
 30
0.0
 11
287.0
 21
529.82219510669677
 31
0.0
  0
LINE
  5
7D48
  8
0
 10
288.0
 20
538.82219510669665
 30
0.0
 11
285.0
 21
538.82219510669665
 31
0.0
  0
LINE
  5
7D49
  8
0
 10
288.0
 20
541.82219510669665
 30
0.0
 11
287.0
 21
541.82219510669665
 31
0.0
  0
LINE
  5
7D4A
  8
0
 10
288.0
 20
542.82219510669677
 30
0.0
 11
287.0
 21
542.82219510669677
 31
0.0
  0
LINE
  5
7D4B
  8
0
 10
288.0
 20
544.82219510669665
 30
0.0
 11
287.0
 21
544.82219510669665
 31
0.0
  0
LINE
  5
7D4C
  8
0
 10
288.0
 20
543.82219510669665
 30
0.0
 11
286.0
 21
543.82219510669665
 31
0.0
  0
LINE
  5
7D4D
  8
0
 10
288.0
 20
539.82219510669665
 30
0.0
 11
287.0
 21
539.82219510669665
 31
0.0
  0
LINE
  5
7D4E
  8
0
 10
288.0
 20
540.82219510669665
 30
0.0
 11
287.0
 21
540.82219510669665
 31
0.0
  0
LINE
  5
7D4F
  8
0
 10
288.0
 20
537.82219510669677
 30
0.0
 11
287.0
 21
537.82219510669677
 31
0.0
  0
LINE
  5
7D50
  8
0
 10
288.0
 20
536.82219510669665
 30
0.0
 11
287.0
 21
536.82219510669665
 31
0.0
  0
LINE
  5
7D51
  8
0
 10
288.0
 20
548.82219510669665
 30
0.0
 11
285.0
 21
548.82219510669665
 31
0.0
  0
LINE
  5
7D52
  8
0
 10
288.0
 20
549.82219510669665
 30
0.0
 11
287.0
 21
549.82219510669665
 31
0.0
  0
LINE
  5
7D53
  8
0
 10
288.0
 20
550.82219510669677
 30
0.0
 11
287.0
 21
550.82219510669677
 31
0.0
  0
LINE
  5
7D54
  8
0
 10
288.0
 20
551.82219510669665
 30
0.0
 11
287.0
 21
551.82219510669665
 31
0.0
  0
LINE
  5
7D55
  8
0
 10
288.0
 20
552.82219510669665
 30
0.0
 11
287.0
 21
552.82219510669665
 31
0.0
  0
LINE
  5
7D56
  8
0
 10
288.0
 20
547.82219510669665
 30
0.0
 11
287.0
 21
547.82219510669665
 31
0.0
  0
LINE
  5
7D57
  8
0
 10
288.0
 20
546.82219510669677
 30
0.0
 11
287.0
 21
546.82219510669677
 31
0.0
  0
LINE
  5
7D58
  8
0
 10
288.0
 20
545.82219510669665
 30
0.0
 11
287.0
 21
545.82219510669665
 31
0.0
  0
LINE
  5
7D59
  8
0
 10
288.0
 20
558.82219510669677
 30
0.0
 11
285.0
 21
558.82219510669677
 31
0.0
  0
LINE
  5
7D5A
  8
0
 10
288.0
 20
559.82219510669665
 30
0.0
 11
287.0
 21
559.82219510669665
 31
0.0
  0
LINE
  5
7D5B
  8
0
 10
288.0
 20
560.82219510669665
 30
0.0
 11
287.0
 21
560.82219510669665
 31
0.0
  0
LINE
  5
7D5C
  8
0
 10
288.0
 20
561.82219510669665
 30
0.0
 11
287.0
 21
561.82219510669665
 31
0.0
  0
LINE
  5
7D5D
  8
0
 10
288.0
 20
553.82219510669665
 30
0.0
 11
286.0
 21
553.82219510669665
 31
0.0
  0
LINE
  5
7D5E
  8
0
 10
288.0
 20
557.82219510669665
 30
0.0
 11
287.0
 21
557.82219510669665
 31
0.0
  0
LINE
  5
7D5F
  8
0
 10
288.0
 20
556.82219510669665
 30
0.0
 11
287.0
 21
556.82219510669665
 31
0.0
  0
LINE
  5
7D60
  8
0
 10
288.0
 20
555.82219510669665
 30
0.0
 11
287.0
 21
555.82219510669665
 31
0.0
  0
LINE
  5
7D61
  8
0
 10
288.0
 20
554.82219510669677
 30
0.0
 11
287.0
 21
554.82219510669677
 31
0.0
  0
LINE
  5
7D62
  8
0
 10
288.0
 20
568.82219510669665
 30
0.0
 11
285.0
 21
568.82219510669665
 31
0.0
  0
LINE
  5
7D63
  8
0
 10
288.0
 20
567.82219510669677
 30
0.0
 11
287.0
 21
567.82219510669677
 31
0.0
  0
LINE
  5
7D64
  8
0
 10
288.0
 20
569.82219510669665
 30
0.0
 11
287.0
 21
569.82219510669665
 31
0.0
  0
LINE
  5
7D65
  8
0
 10
288.0
 20
570.82219510669665
 30
0.0
 11
287.0
 21
570.82219510669665
 31
0.0
  0
LINE
  5
7D66
  8
0
 10
288.0
 20
562.82219510669677
 30
0.0
 11
287.0
 21
562.82219510669677
 31
0.0
  0
LINE
  5
7D67
  8
0
 10
288.0
 20
566.82219510669665
 30
0.0
 11
287.0
 21
566.82219510669665
 31
0.0
  0
LINE
  5
7D68
  8
0
 10
288.0
 20
565.82219510669665
 30
0.0
 11
287.0
 21
565.82219510669665
 31
0.0
  0
LINE
  5
7D69
  8
0
 10
288.0
 20
564.82219510669665
 30
0.0
 11
287.0
 21
564.82219510669665
 31
0.0
  0
LINE
  5
7D6A
  8
0
 10
288.0
 20
563.82219510669665
 30
0.0
 11
286.0
 21
563.82219510669665
 31
0.0
  0
LINE
  5
7D6B
  8
0
 10
288.0
 20
578.82219510669665
 30
0.0
 11
285.0
 21
578.82219510669665
 31
0.0
  0
LINE
  5
7D6C
  8
0
 10
288.0
 20
579.82219510669665
 30
0.0
 11
287.0
 21
579.82219510669665
 31
0.0
  0
LINE
  5
7D6D
  8
0
 10
288.0
 20
577.82219510669665
 30
0.0
 11
287.0
 21
577.82219510669665
 31
0.0
  0
LINE
  5
7D6E
  8
0
 10
288.0
 20
576.82219510669665
 30
0.0
 11
287.0
 21
576.82219510669665
 31
0.0
  0
LINE
  5
7D6F
  8
0
 10
288.0
 20
575.82219510669665
 30
0.0
 11
287.0
 21
575.82219510669665
 31
0.0
  0
LINE
  5
7D70
  8
0
 10
288.0
 20
574.82219510669665
 30
0.0
 11
287.0
 21
574.82219510669665
 31
0.0
  0
LINE
  5
7D71
  8
0
 10
288.0
 20
571.82219510669677
 30
0.0
 11
287.0
 21
571.82219510669677
 31
0.0
  0
LINE
  5
7D72
  8
0
 10
288.0
 20
572.82219510669665
 30
0.0
 11
287.0
 21
572.82219510669665
 31
0.0
  0
LINE
  5
7D73
  8
0
 10
288.0
 20
573.82219510669665
 30
0.0
 11
286.0
 21
573.82219510669665
 31
0.0
  0
LINE
  5
7D74
  8
0
 10
288.0
 20
587.82219510669665
 30
0.0
 11
287.0
 21
587.82219510669665
 31
0.0
  0
LINE
  5
7D75
  8
0
 10
288.0
 20
585.82219510669665
 30
0.0
 11
287.0
 21
585.82219510669665
 31
0.0
  0
LINE
  5
7D76
  8
0
 10
288.0
 20
584.82219510669665
 30
0.0
 11
287.0
 21
584.82219510669665
 31
0.0
  0
LINE
  5
7D77
  8
0
 10
288.0
 20
586.82219510669665
 30
0.0
 11
287.0
 21
586.82219510669665
 31
0.0
  0
LINE
  5
7D78
  8
0
 10
288.0
 20
580.82219510669665
 30
0.0
 11
287.0
 21
580.82219510669665
 31
0.0
  0
LINE
  5
7D79
  8
0
 10
288.0
 20
581.82219510669665
 30
0.0
 11
287.0
 21
581.82219510669665
 31
0.0
  0
LINE
  5
7D7A
  8
0
 10
288.0
 20
582.82219510669665
 30
0.0
 11
287.0
 21
582.82219510669665
 31
0.0
  0
LINE
  5
7D7B
  8
0
 10
288.0
 20
583.82219510669665
 30
0.0
 11
286.0
 21
583.82219510669665
 31
0.0
  0
LINE
  5
7D7C
  8
0
 10
288.0
 20
588.82219510669665
 30
0.0
 11
285.0
 21
588.82219510669665
 31
0.0
  0
LINE
  5
7D7D
  8
0
 10
288.0
 20
595.82219510669665
 30
0.0
 11
287.0
 21
595.82219510669665
 31
0.0
  0
LINE
  5
7D7E
  8
0
 10
288.0
 20
596.82219510669677
 30
0.0
 11
287.0
 21
596.82219510669677
 31
0.0
  0
LINE
  5
7D7F
  8
0
 10
288.0
 20
594.82219510669665
 30
0.0
 11
287.0
 21
594.82219510669665
 31
0.0
  0
LINE
  5
7D80
  8
0
 10
288.0
 20
593.82219510669665
 30
0.0
 11
286.0
 21
593.82219510669665
 31
0.0
  0
LINE
  5
7D81
  8
0
 10
288.0
 20
589.82219510669665
 30
0.0
 11
287.0
 21
589.82219510669665
 31
0.0
  0
LINE
  5
7D82
  8
0
 10
288.0
 20
590.82219510669665
 30
0.0
 11
287.0
 21
590.82219510669665
 31
0.0
  0
LINE
  5
7D83
  8
0
 10
288.0
 20
591.82219510669665
 30
0.0
 11
287.0
 21
591.82219510669665
 31
0.0
  0
LINE
  5
7D84
  8
0
 10
288.0
 20
592.82219510669677
 30
0.0
 11
287.0
 21
592.82219510669677
 31
0.0
  0
LINE
  5
7D85
  8
0
 10
288.0
 20
598.82219510669665
 30
0.0
 11
285.0
 21
598.82219510669665
 31
0.0
  0
LINE
  5
7D86
  8
0
 10
288.0
 20
604.82219510669665
 30
0.0
 11
287.0
 21
604.82219510669665
 31
0.0
  0
LINE
  5
7D87
  8
0
 10
288.0
 20
605.82219510669665
 30
0.0
 11
287.0
 21
605.82219510669665
 31
0.0
  0
LINE
  5
7D88
  8
0
 10
288.0
 20
603.82219510669665
 30
0.0
 11
286.0
 21
603.82219510669665
 31
0.0
  0
LINE
  5
7D89
  8
0
 10
288.0
 20
602.82219510669665
 30
0.0
 11
287.0
 21
602.82219510669665
 31
0.0
  0
LINE
  5
7D8A
  8
0
 10
288.0
 20
597.82219510669665
 30
0.0
 11
287.0
 21
597.82219510669665
 31
0.0
  0
LINE
  5
7D8B
  8
0
 10
288.0
 20
601.82219510669665
 30
0.0
 11
287.0
 21
601.82219510669665
 31
0.0
  0
LINE
  5
7D8C
  8
0
 10
288.0
 20
600.82219510669677
 30
0.0
 11
287.0
 21
600.82219510669677
 31
0.0
  0
LINE
  5
7D8D
  8
0
 10
288.0
 20
599.82219510669665
 30
0.0
 11
287.0
 21
599.82219510669665
 31
0.0
  0
LINE
  5
7D8E
  8
0
 10
288.0
 20
608.82219510669665
 30
0.0
 11
285.0
 21
608.82219510669665
 31
0.0
  0
LINE
  5
7D8F
  8
0
 10
288.0
 20
606.82219510669665
 30
0.0
 11
287.0
 21
606.82219510669665
 31
0.0
  0
LINE
  5
7D90
  8
0
 10
288.0
 20
607.82219510669665
 30
0.0
 11
287.0
 21
607.82219510669665
 31
0.0
  0
LINE
  5
7D91
  8
0
 10
288.0
 20
612.82219510669665
 30
0.0
 11
287.0
 21
612.82219510669665
 31
0.0
  0
LINE
  5
7D92
  8
0
 10
288.0
 20
611.82219510669665
 30
0.0
 11
287.0
 21
611.82219510669665
 31
0.0
  0
LINE
  5
7D93
  8
0
 10
288.0
 20
610.82219510669665
 30
0.0
 11
287.0
 21
610.82219510669665
 31
0.0
  0
LINE
  5
7D94
  8
0
 10
288.0
 20
613.82219510669665
 30
0.0
 11
286.0
 21
613.82219510669665
 31
0.0
  0
LINE
  5
7D95
  8
0
 10
288.0
 20
609.82219510669665
 30
0.0
 11
287.0
 21
609.82219510669665
 31
0.0
  0
LINE
  5
7D96
  8
0
 10
288.0
 20
618.82219510669665
 30
0.0
 11
285.0
 21
618.82219510669665
 31
0.0
  0
LINE
  5
7D97
  8
0
 10
288.0
 20
620.82219510669665
 30
0.0
 11
287.0
 21
620.82219510669665
 31
0.0
  0
LINE
  5
7D98
  8
0
 10
288.0
 20
619.82219510669665
 30
0.0
 11
287.0
 21
619.82219510669665
 31
0.0
  0
LINE
  5
7D99
  8
0
 10
288.0
 20
622.82219510669665
 30
0.0
 11
287.0
 21
622.82219510669665
 31
0.0
  0
LINE
  5
7D9A
  8
0
 10
288.0
 20
621.82219510669677
 30
0.0
 11
287.0
 21
621.82219510669677
 31
0.0
  0
LINE
  5
7D9B
  8
0
 10
288.0
 20
614.82219510669665
 30
0.0
 11
287.0
 21
614.82219510669665
 31
0.0
  0
LINE
  5
7D9C
  8
0
 10
288.0
 20
615.82219510669665
 30
0.0
 11
287.0
 21
615.82219510669665
 31
0.0
  0
LINE
  5
7D9D
  8
0
 10
288.0
 20
616.82219510669665
 30
0.0
 11
287.0
 21
616.82219510669665
 31
0.0
  0
LINE
  5
7D9E
  8
0
 10
288.0
 20
617.82219510669677
 30
0.0
 11
287.0
 21
617.82219510669677
 31
0.0
  0
LINE
  5
7D9F
  8
0
 10
288.0
 20
628.82219510669665
 30
0.0
 11
285.0
 21
628.82219510669665
 31
0.0
  0
LINE
  5
7DA0
  8
0
 10
288.0
 20
629.82219510669665
 30
0.0
 11
287.0
 21
629.82219510669665
 31
0.0
  0
LINE
  5
7DA1
  8
0
 10
288.0
 20
631.82219510669665
 30
0.0
 11
287.0
 21
631.82219510669665
 31
0.0
  0
LINE
  5
7DA2
  8
0
 10
288.0
 20
630.82219510669665
 30
0.0
 11
287.0
 21
630.82219510669665
 31
0.0
  0
LINE
  5
7DA3
  8
0
 10
288.0
 20
623.82219510669665
 30
0.0
 11
286.0
 21
623.82219510669665
 31
0.0
  0
LINE
  5
7DA4
  8
0
 10
288.0
 20
624.82219510669665
 30
0.0
 11
287.0
 21
624.82219510669665
 31
0.0
  0
LINE
  5
7DA5
  8
0
 10
288.0
 20
625.82219510669677
 30
0.0
 11
287.0
 21
625.82219510669677
 31
0.0
  0
LINE
  5
7DA6
  8
0
 10
288.0
 20
626.82219510669665
 30
0.0
 11
287.0
 21
626.82219510669665
 31
0.0
  0
LINE
  5
7DA7
  8
0
 10
288.0
 20
627.82219510669665
 30
0.0
 11
287.0
 21
627.82219510669665
 31
0.0
  0
LINE
  5
7DA8
  8
0
 10
288.0
 20
638.82219510669665
 30
0.0
 11
285.0
 21
638.82219510669665
 31
0.0
  0
LINE
  5
7DA9
  8
0
 10
288.0
 20
633.82219510669665
 30
0.0
 11
286.0
 21
633.82219510669665
 31
0.0
  0
LINE
  5
7DAA
  8
0
 10
288.0
 20
632.82219510669665
 30
0.0
 11
287.0
 21
632.82219510669665
 31
0.0
  0
LINE
  5
7DAB
  8
0
 10
288.0
 20
634.82219510669665
 30
0.0
 11
287.0
 21
634.82219510669665
 31
0.0
  0
LINE
  5
7DAC
  8
0
 10
288.0
 20
635.82219510669665
 30
0.0
 11
287.0
 21
635.82219510669665
 31
0.0
  0
LINE
  5
7DAD
  8
0
 10
288.0
 20
636.82219510669665
 30
0.0
 11
287.0
 21
636.82219510669665
 31
0.0
  0
LINE
  5
7DAE
  8
0
 10
288.0
 20
637.82219510669665
 30
0.0
 11
287.0
 21
637.82219510669665
 31
0.0
  0
LINE
  5
7DAF
  8
0
 10
288.0
 20
640.82219510669665
 30
0.0
 11
287.0
 21
640.82219510669665
 31
0.0
  0
LINE
  5
7DB0
  8
0
 10
288.0
 20
639.82219510669665
 30
0.0
 11
287.0
 21
639.82219510669665
 31
0.0
  0
LINE
  5
7DB1
  8
0
 10
288.0
 20
648.82219510669665
 30
0.0
 11
285.0
 21
648.82219510669665
 31
0.0
  0
LINE
  5
7DB2
  8
0
 10
288.0
 20
645.82219510669665
 30
0.0
 11
287.0
 21
645.82219510669665
 31
0.0
  0
LINE
  5
7DB3
  8
0
 10
288.0
 20
646.82219510669677
 30
0.0
 11
287.0
 21
646.82219510669677
 31
0.0
  0
LINE
  5
7DB4
  8
0
 10
288.0
 20
647.82219510669665
 30
0.0
 11
287.0
 21
647.82219510669665
 31
0.0
  0
LINE
  5
7DB5
  8
0
 10
288.0
 20
643.82219510669665
 30
0.0
 11
286.0
 21
643.82219510669665
 31
0.0
  0
LINE
  5
7DB6
  8
0
 10
288.0
 20
644.82219510669665
 30
0.0
 11
287.0
 21
644.82219510669665
 31
0.0
  0
LINE
  5
7DB7
  8
0
 10
288.0
 20
642.82219510669677
 30
0.0
 11
287.0
 21
642.82219510669677
 31
0.0
  0
LINE
  5
7DB8
  8
0
 10
288.0
 20
641.82219510669665
 30
0.0
 11
287.0
 21
641.82219510669665
 31
0.0
  0
LINE
  5
7DB9
  8
0
 10
288.0
 20
654.82219510669665
 30
0.0
 11
287.0
 21
654.82219510669665
 31
0.0
  0
LINE
  5
7DBA
  8
0
 10
288.0
 20
655.82219510669665
 30
0.0
 11
287.0
 21
655.82219510669665
 31
0.0
  0
LINE
  5
7DBB
  8
0
 10
288.0
 20
656.82219510669665
 30
0.0
 11
287.0
 21
656.82219510669665
 31
0.0
  0
LINE
  5
7DBC
  8
0
 10
288.0
 20
657.82219510669665
 30
0.0
 11
287.0
 21
657.82219510669665
 31
0.0
  0
LINE
  5
7DBD
  8
0
 10
288.0
 20
653.82219510669665
 30
0.0
 11
286.0
 21
653.82219510669665
 31
0.0
  0
LINE
  5
7DBE
  8
0
 10
288.0
 20
652.82219510669665
 30
0.0
 11
287.0
 21
652.82219510669665
 31
0.0
  0
LINE
  5
7DBF
  8
0
 10
288.0
 20
651.82219510669665
 30
0.0
 11
287.0
 21
651.82219510669665
 31
0.0
  0
LINE
  5
7DC0
  8
0
 10
288.0
 20
650.82219510669677
 30
0.0
 11
287.0
 21
650.82219510669677
 31
0.0
  0
LINE
  5
7DC1
  8
0
 10
288.0
 20
649.82219510669665
 30
0.0
 11
287.0
 21
649.82219510669665
 31
0.0
  0
LINE
  5
7DC2
  8
0
 10
288.0
 20
658.82219510669665
 30
0.0
 11
285.0
 21
658.82219510669665
 31
0.0
  0
LINE
  5
7DC3
  8
0
 10
288.0
 20
663.82219510669665
 30
0.0
 11
286.0
 21
663.82219510669665
 31
0.0
  0
LINE
  5
7DC4
  8
0
 10
288.0
 20
664.82219510669665
 30
0.0
 11
287.0
 21
664.82219510669665
 31
0.0
  0
LINE
  5
7DC5
  8
0
 10
288.0
 20
665.82219510669665
 30
0.0
 11
287.0
 21
665.82219510669665
 31
0.0
  0
LINE
  5
7DC6
  8
0
 10
288.0
 20
666.82219510669665
 30
0.0
 11
287.0
 21
666.82219510669665
 31
0.0
  0
LINE
  5
7DC7
  8
0
 10
288.0
 20
661.82219510669665
 30
0.0
 11
287.0
 21
661.82219510669665
 31
0.0
  0
LINE
  5
7DC8
  8
0
 10
288.0
 20
660.82219510669665
 30
0.0
 11
287.0
 21
660.82219510669665
 31
0.0
  0
LINE
  5
7DC9
  8
0
 10
288.0
 20
659.82219510669665
 30
0.0
 11
287.0
 21
659.82219510669665
 31
0.0
  0
LINE
  5
7DCA
  8
0
 10
288.0
 20
662.82219510669665
 30
0.0
 11
287.0
 21
662.82219510669665
 31
0.0
  0
LINE
  5
7DCB
  8
0
 10
288.0
 20
668.82219510669665
 30
0.0
 11
285.0
 21
668.82219510669665
 31
0.0
  0
LINE
  5
7DCC
  8
0
 10
288.0
 20
673.82219510669665
 30
0.0
 11
286.0
 21
673.82219510669665
 31
0.0
  0
LINE
  5
7DCD
  8
0
 10
288.0
 20
672.82219510669665
 30
0.0
 11
287.0
 21
672.82219510669665
 31
0.0
  0
LINE
  5
7DCE
  8
0
 10
288.0
 20
671.82219510669677
 30
0.0
 11
287.0
 21
671.82219510669677
 31
0.0
  0
LINE
  5
7DCF
  8
0
 10
288.0
 20
674.82219510669665
 30
0.0
 11
287.0
 21
674.82219510669665
 31
0.0
  0
LINE
  5
7DD0
  8
0
 10
288.0
 20
670.82219510669665
 30
0.0
 11
287.0
 21
670.82219510669665
 31
0.0
  0
LINE
  5
7DD1
  8
0
 10
288.0
 20
669.82219510669665
 30
0.0
 11
287.0
 21
669.82219510669665
 31
0.0
  0
LINE
  5
7DD2
  8
0
 10
288.0
 20
667.82219510669677
 30
0.0
 11
287.0
 21
667.82219510669677
 31
0.0
  0
LINE
  5
7DD3
  8
0
 10
288.0
 20
678.82219510669665
 30
0.0
 11
285.0
 21
678.82219510669665
 31
0.0
  0
LINE
  5
7DD4
  8
0
 10
288.0
 20
683.82219510669665
 30
0.0
 11
286.0
 21
683.82219510669665
 31
0.0
  0
LINE
  5
7DD5
  8
0
 10
288.0
 20
682.82219510669665
 30
0.0
 11
287.0
 21
682.82219510669665
 31
0.0
  0
LINE
  5
7DD6
  8
0
 10
288.0
 20
681.82219510669665
 30
0.0
 11
287.0
 21
681.82219510669665
 31
0.0
  0
LINE
  5
7DD7
  8
0
 10
288.0
 20
680.82219510669665
 30
0.0
 11
287.0
 21
680.82219510669665
 31
0.0
  0
LINE
  5
7DD8
  8
0
 10
288.0
 20
675.82219510669677
 30
0.0
 11
287.0
 21
675.82219510669677
 31
0.0
  0
LINE
  5
7DD9
  8
0
 10
288.0
 20
676.82219510669665
 30
0.0
 11
287.0
 21
676.82219510669665
 31
0.0
  0
LINE
  5
7DDA
  8
0
 10
288.0
 20
677.82219510669665
 30
0.0
 11
287.0
 21
677.82219510669665
 31
0.0
  0
LINE
  5
7DDB
  8
0
 10
288.0
 20
679.82219510669665
 30
0.0
 11
287.0
 21
679.82219510669665
 31
0.0
  0
LINE
  5
7DDC
  8
0
 10
288.0
 20
688.82219510669665
 30
0.0
 11
285.0
 21
688.82219510669665
 31
0.0
  0
LINE
  5
7DDD
  8
0
 10
288.0
 20
692.82219510669677
 30
0.0
 11
287.0
 21
692.82219510669677
 31
0.0
  0
LINE
  5
7DDE
  8
0
 10
288.0
 20
691.82219510669654
 30
0.0
 11
287.0
 21
691.82219510669654
 31
0.0
  0
LINE
  5
7DDF
  8
0
 10
288.0
 20
690.82219510669654
 30
0.0
 11
287.0
 21
690.82219510669654
 31
0.0
  0
LINE
  5
7DE0
  8
0
 10
288.0
 20
689.82219510669654
 30
0.0
 11
287.0
 21
689.82219510669654
 31
0.0
  0
LINE
  5
7DE1
  8
0
 10
288.0
 20
686.82219510669665
 30
0.0
 11
287.0
 21
686.82219510669665
 31
0.0
  0
LINE
  5
7DE2
  8
0
 10
288.0
 20
684.82219510669665
 30
0.0
 11
287.0
 21
684.82219510669665
 31
0.0
  0
LINE
  5
7DE3
  8
0
 10
288.0
 20
685.82219510669665
 30
0.0
 11
287.0
 21
685.82219510669665
 31
0.0
  0
LINE
  5
7DE4
  8
0
 10
288.0
 20
687.82219510669654
 30
0.0
 11
287.0
 21
687.82219510669654
 31
0.0
  0
LINE
  5
7DE5
  8
0
 10
288.0
 20
698.82219510669654
 30
0.0
 11
285.0
 21
698.82219510669654
 31
0.0
  0
LINE
  5
7DE6
  8
0
 10
288.0
 20
699.82219510669654
 30
0.0
 11
287.0
 21
699.82219510669654
 31
0.0
  0
LINE
  5
7DE7
  8
0
 10
288.0
 20
700.82219510669677
 30
0.0
 11
287.0
 21
700.82219510669677
 31
0.0
  0
LINE
  5
7DE8
  8
0
 10
288.0
 20
701.82219510669654
 30
0.0
 11
287.0
 21
701.82219510669654
 31
0.0
  0
LINE
  5
7DE9
  8
0
 10
288.0
 20
697.82219510669654
 30
0.0
 11
287.0
 21
697.82219510669654
 31
0.0
  0
LINE
  5
7DEA
  8
0
 10
288.0
 20
693.82219510669654
 30
0.0
 11
286.0
 21
693.82219510669654
 31
0.0
  0
LINE
  5
7DEB
  8
0
 10
288.0
 20
694.82219510669654
 30
0.0
 11
287.0
 21
694.82219510669654
 31
0.0
  0
LINE
  5
7DEC
  8
0
 10
288.0
 20
696.82219510669677
 30
0.0
 11
287.0
 21
696.82219510669677
 31
0.0
  0
LINE
  5
7DED
  8
0
 10
288.0
 20
695.82219510669654
 30
0.0
 11
287.0
 21
695.82219510669654
 31
0.0
  0
LINE
  5
7DEE
  8
0
 10
288.0
 20
708.82219510669654
 30
0.0
 11
285.0
 21
708.82219510669654
 31
0.0
  0
LINE
  5
7DEF
  8
0
 10
288.0
 20
707.82219510669654
 30
0.0
 11
287.0
 21
707.82219510669654
 31
0.0
  0
LINE
  5
7DF0
  8
0
 10
288.0
 20
706.82219510669654
 30
0.0
 11
287.0
 21
706.82219510669654
 31
0.0
  0
LINE
  5
7DF1
  8
0
 10
288.0
 20
702.82219510669654
 30
0.0
 11
287.0
 21
702.82219510669654
 31
0.0
  0
LINE
  5
7DF2
  8
0
 10
288.0
 20
703.82219510669654
 30
0.0
 11
286.0
 21
703.82219510669654
 31
0.0
  0
LINE
  5
7DF3
  8
0
 10
288.0
 20
705.82219510669665
 30
0.0
 11
287.0
 21
705.82219510669665
 31
0.0
  0
LINE
  5
7DF4
  8
0
 10
288.0
 20
704.82219510669654
 30
0.0
 11
287.0
 21
704.82219510669654
 31
0.0
  0
LINE
  5
7DF5
  8
0
 10
10.0
 20
408.82219510669682
 30
0.0
 11
13.0
 21
408.82219510669682
 31
0.0
  0
LINE
  5
7DF6
  8
0
 10
10.0
 20
412.82219510669671
 30
0.0
 11
11.0
 21
412.82219510669671
 31
0.0
  0
LINE
  5
7DF7
  8
0
 10
10.0
 20
411.82219510669671
 30
0.0
 11
11.0
 21
411.82219510669671
 31
0.0
  0
LINE
  5
7DF8
  8
0
 10
10.0
 20
410.8221951066966
 30
0.0
 11
11.0
 21
410.8221951066966
 31
0.0
  0
LINE
  5
7DF9
  8
0
 10
10.0
 20
409.82219510669671
 30
0.0
 11
11.0
 21
409.82219510669671
 31
0.0
  0
LINE
  5
7DFA
  8
0
 10
10.0
 20
418.82219510669671
 30
0.0
 11
13.0
 21
418.82219510669671
 31
0.0
  0
LINE
  5
7DFB
  8
0
 10
10.0
 20
413.82219510669671
 30
0.0
 11
12.0
 21
413.82219510669671
 31
0.0
  0
LINE
  5
7DFC
  8
0
 10
10.0
 20
420.82219510669671
 30
0.0
 11
11.0
 21
420.82219510669671
 31
0.0
  0
LINE
  5
7DFD
  8
0
 10
10.0
 20
419.82219510669671
 30
0.0
 11
11.0
 21
419.82219510669671
 31
0.0
  0
LINE
  5
7DFE
  8
0
 10
10.0
 20
414.8221951066966
 30
0.0
 11
11.0
 21
414.8221951066966
 31
0.0
  0
LINE
  5
7DFF
  8
0
 10
10.0
 20
415.82219510669671
 30
0.0
 11
11.0
 21
415.82219510669671
 31
0.0
  0
LINE
  5
7E00
  8
0
 10
10.0
 20
416.82219510669671
 30
0.0
 11
11.0
 21
416.82219510669671
 31
0.0
  0
LINE
  5
7E01
  8
0
 10
10.0
 20
417.82219510669682
 30
0.0
 11
11.0
 21
417.82219510669682
 31
0.0
  0
LINE
  5
7E02
  8
0
 10
10.0
 20
428.82219510669671
 30
0.0
 11
13.0
 21
428.82219510669671
 31
0.0
  0
LINE
  5
7E03
  8
0
 10
10.0
 20
423.8221951066966
 30
0.0
 11
12.0
 21
423.8221951066966
 31
0.0
  0
LINE
  5
7E04
  8
0
 10
10.0
 20
429.82219510669682
 30
0.0
 11
11.0
 21
429.82219510669682
 31
0.0
  0
LINE
  5
7E05
  8
0
 10
10.0
 20
422.82219510669671
 30
0.0
 11
11.0
 21
422.82219510669671
 31
0.0
  0
LINE
  5
7E06
  8
0
 10
10.0
 20
421.82219510669682
 30
0.0
 11
11.0
 21
421.82219510669682
 31
0.0
  0
LINE
  5
7E07
  8
0
 10
10.0
 20
424.82219510669671
 30
0.0
 11
11.0
 21
424.82219510669671
 31
0.0
  0
LINE
  5
7E08
  8
0
 10
10.0
 20
425.82219510669682
 30
0.0
 11
11.0
 21
425.82219510669682
 31
0.0
  0
LINE
  5
7E09
  8
0
 10
10.0
 20
426.82219510669671
 30
0.0
 11
11.0
 21
426.82219510669671
 31
0.0
  0
LINE
  5
7E0A
  8
0
 10
10.0
 20
427.8221951066966
 30
0.0
 11
11.0
 21
427.8221951066966
 31
0.0
  0
LINE
  5
7E0B
  8
0
 10
10.0
 20
433.82219510669682
 30
0.0
 11
12.0
 21
433.82219510669682
 31
0.0
  0
LINE
  5
7E0C
  8
0
 10
10.0
 20
432.82219510669671
 30
0.0
 11
11.0
 21
432.82219510669671
 31
0.0
  0
LINE
  5
7E0D
  8
0
 10
10.0
 20
434.82219510669671
 30
0.0
 11
11.0
 21
434.82219510669671
 31
0.0
  0
LINE
  5
7E0E
  8
0
 10
10.0
 20
435.8221951066966
 30
0.0
 11
11.0
 21
435.8221951066966
 31
0.0
  0
LINE
  5
7E0F
  8
0
 10
10.0
 20
436.82219510669671
 30
0.0
 11
11.0
 21
436.82219510669671
 31
0.0
  0
LINE
  5
7E10
  8
0
 10
10.0
 20
437.82219510669682
 30
0.0
 11
11.0
 21
437.82219510669682
 31
0.0
  0
LINE
  5
7E11
  8
0
 10
10.0
 20
431.8221951066966
 30
0.0
 11
11.0
 21
431.8221951066966
 31
0.0
  0
LINE
  5
7E12
  8
0
 10
10.0
 20
430.82219510669671
 30
0.0
 11
11.0
 21
430.82219510669671
 31
0.0
  0
LINE
  5
7E13
  8
0
 10
10.0
 20
438.82219510669671
 30
0.0
 11
13.0
 21
438.82219510669671
 31
0.0
  0
LINE
  5
7E14
  8
0
 10
10.0
 20
443.82219510669671
 30
0.0
 11
12.0
 21
443.82219510669671
 31
0.0
  0
LINE
  5
7E15
  8
0
 10
10.0
 20
444.82219510669671
 30
0.0
 11
11.0
 21
444.82219510669671
 31
0.0
  0
LINE
  5
7E16
  8
0
 10
10.0
 20
445.82219510669671
 30
0.0
 11
11.0
 21
445.82219510669671
 31
0.0
  0
LINE
  5
7E17
  8
0
 10
10.0
 20
442.82219510669682
 30
0.0
 11
11.0
 21
442.82219510669682
 31
0.0
  0
LINE
  5
7E18
  8
0
 10
10.0
 20
441.82219510669671
 30
0.0
 11
11.0
 21
441.82219510669671
 31
0.0
  0
LINE
  5
7E19
  8
0
 10
10.0
 20
440.82219510669671
 30
0.0
 11
11.0
 21
440.82219510669671
 31
0.0
  0
LINE
  5
7E1A
  8
0
 10
10.0
 20
439.8221951066966
 30
0.0
 11
11.0
 21
439.8221951066966
 31
0.0
  0
LINE
  5
7E1B
  8
0
 10
10.0
 20
448.82219510669671
 30
0.0
 11
13.0
 21
448.82219510669671
 31
0.0
  0
LINE
  5
7E1C
  8
0
 10
10.0
 20
453.82219510669671
 30
0.0
 11
12.0
 21
453.82219510669671
 31
0.0
  0
LINE
  5
7E1D
  8
0
 10
10.0
 20
452.8221951066966
 30
0.0
 11
11.0
 21
452.8221951066966
 31
0.0
  0
LINE
  5
7E1E
  8
0
 10
10.0
 20
451.82219510669671
 30
0.0
 11
11.0
 21
451.82219510669671
 31
0.0
  0
LINE
  5
7E1F
  8
0
 10
10.0
 20
450.82219510669682
 30
0.0
 11
11.0
 21
450.82219510669682
 31
0.0
  0
LINE
  5
7E20
  8
0
 10
10.0
 20
449.82219510669671
 30
0.0
 11
11.0
 21
449.82219510669671
 31
0.0
  0
LINE
  5
7E21
  8
0
 10
10.0
 20
446.82219510669682
 30
0.0
 11
11.0
 21
446.82219510669682
 31
0.0
  0
LINE
  5
7E22
  8
0
 10
10.0
 20
447.82219510669671
 30
0.0
 11
11.0
 21
447.82219510669671
 31
0.0
  0
LINE
  5
7E23
  8
0
 10
10.0
 20
458.82219510669682
 30
0.0
 11
13.0
 21
458.82219510669682
 31
0.0
  0
LINE
  5
7E24
  8
0
 10
10.0
 20
461.82219510669671
 30
0.0
 11
11.0
 21
461.82219510669671
 31
0.0
  0
LINE
  5
7E25
  8
0
 10
10.0
 20
460.8221951066966
 30
0.0
 11
11.0
 21
460.8221951066966
 31
0.0
  0
LINE
  5
7E26
  8
0
 10
10.0
 20
459.82219510669671
 30
0.0
 11
11.0
 21
459.82219510669671
 31
0.0
  0
LINE
  5
7E27
  8
0
 10
10.0
 20
454.82219510669682
 30
0.0
 11
11.0
 21
454.82219510669682
 31
0.0
  0
LINE
  5
7E28
  8
0
 10
10.0
 20
455.82219510669671
 30
0.0
 11
11.0
 21
455.82219510669671
 31
0.0
  0
LINE
  5
7E29
  8
0
 10
10.0
 20
456.8221951066966
 30
0.0
 11
11.0
 21
456.8221951066966
 31
0.0
  0
LINE
  5
7E2A
  8
0
 10
10.0
 20
457.82219510669671
 30
0.0
 11
11.0
 21
457.82219510669671
 31
0.0
  0
LINE
  5
7E2B
  8
0
 10
10.0
 20
468.82219510669671
 30
0.0
 11
13.0
 21
468.82219510669671
 31
0.0
  0
LINE
  5
7E2C
  8
0
 10
10.0
 20
463.82219510669671
 30
0.0
 11
12.0
 21
463.82219510669671
 31
0.0
  0
LINE
  5
7E2D
  8
0
 10
10.0
 20
470.82219510669671
 30
0.0
 11
11.0
 21
470.82219510669671
 31
0.0
  0
LINE
  5
7E2E
  8
0
 10
10.0
 20
469.82219510669671
 30
0.0
 11
11.0
 21
469.82219510669671
 31
0.0
  0
LINE
  5
7E2F
  8
0
 10
10.0
 20
464.8221951066966
 30
0.0
 11
11.0
 21
464.8221951066966
 31
0.0
  0
LINE
  5
7E30
  8
0
 10
10.0
 20
465.82219510669671
 30
0.0
 11
11.0
 21
465.82219510669671
 31
0.0
  0
LINE
  5
7E31
  8
0
 10
10.0
 20
466.82219510669671
 30
0.0
 11
11.0
 21
466.82219510669671
 31
0.0
  0
LINE
  5
7E32
  8
0
 10
10.0
 20
467.82219510669682
 30
0.0
 11
11.0
 21
467.82219510669682
 31
0.0
  0
LINE
  5
7E33
  8
0
 10
10.0
 20
462.82219510669682
 30
0.0
 11
11.0
 21
462.82219510669682
 31
0.0
  0
LINE
  5
7E34
  8
0
 10
10.0
 20
478.82219510669671
 30
0.0
 11
13.0
 21
478.82219510669671
 31
0.0
  0
LINE
  5
7E35
  8
0
 10
10.0
 20
473.82219510669671
 30
0.0
 11
12.0
 21
473.82219510669671
 31
0.0
  0
LINE
  5
7E36
  8
0
 10
10.0
 20
475.82219510669682
 30
0.0
 11
11.0
 21
475.82219510669682
 31
0.0
  0
LINE
  5
7E37
  8
0
 10
10.0
 20
476.82219510669671
 30
0.0
 11
11.0
 21
476.82219510669671
 31
0.0
  0
LINE
  5
7E38
  8
0
 10
10.0
 20
477.8221951066966
 30
0.0
 11
11.0
 21
477.8221951066966
 31
0.0
  0
LINE
  5
7E39
  8
0
 10
10.0
 20
472.82219510669671
 30
0.0
 11
11.0
 21
472.82219510669671
 31
0.0
  0
LINE
  5
7E3A
  8
0
 10
10.0
 20
471.82219510669682
 30
0.0
 11
11.0
 21
471.82219510669682
 31
0.0
  0
LINE
  5
7E3B
  8
0
 10
10.0
 20
474.82219510669671
 30
0.0
 11
11.0
 21
474.82219510669671
 31
0.0
  0
LINE
  5
7E3C
  8
0
 10
10.0
 20
483.82219510669682
 30
0.0
 11
12.0
 21
483.82219510669682
 31
0.0
  0
LINE
  5
7E3D
  8
0
 10
10.0
 20
486.82219510669671
 30
0.0
 11
11.0
 21
486.82219510669671
 31
0.0
  0
LINE
  5
7E3E
  8
0
 10
10.0
 20
482.82219510669671
 30
0.0
 11
11.0
 21
482.82219510669671
 31
0.0
  0
LINE
  5
7E3F
  8
0
 10
10.0
 20
481.8221951066966
 30
0.0
 11
11.0
 21
481.8221951066966
 31
0.0
  0
LINE
  5
7E40
  8
0
 10
10.0
 20
480.82219510669671
 30
0.0
 11
11.0
 21
480.82219510669671
 31
0.0
  0
LINE
  5
7E41
  8
0
 10
10.0
 20
479.82219510669682
 30
0.0
 11
11.0
 21
479.82219510669682
 31
0.0
  0
LINE
  5
7E42
  8
0
 10
10.0
 20
484.82219510669671
 30
0.0
 11
11.0
 21
484.82219510669671
 31
0.0
  0
LINE
  5
7E43
  8
0
 10
10.0
 20
485.8221951066966
 30
0.0
 11
11.0
 21
485.8221951066966
 31
0.0
  0
LINE
  5
7E44
  8
0
 10
10.0
 20
488.82219510669671
 30
0.0
 11
13.0
 21
488.82219510669671
 31
0.0
  0
LINE
  5
7E45
  8
0
 10
10.0
 20
493.82219510669671
 30
0.0
 11
12.0
 21
493.82219510669671
 31
0.0
  0
LINE
  5
7E46
  8
0
 10
10.0
 20
492.82219510669682
 30
0.0
 11
11.0
 21
492.82219510669682
 31
0.0
  0
LINE
  5
7E47
  8
0
 10
10.0
 20
491.82219510669671
 30
0.0
 11
11.0
 21
491.82219510669671
 31
0.0
  0
LINE
  5
7E48
  8
0
 10
10.0
 20
490.82219510669671
 30
0.0
 11
11.0
 21
490.82219510669671
 31
0.0
  0
LINE
  5
7E49
  8
0
 10
10.0
 20
489.8221951066966
 30
0.0
 11
11.0
 21
489.8221951066966
 31
0.0
  0
LINE
  5
7E4A
  8
0
 10
10.0
 20
494.82219510669671
 30
0.0
 11
11.0
 21
494.82219510669671
 31
0.0
  0
LINE
  5
7E4B
  8
0
 10
10.0
 20
487.82219510669682
 30
0.0
 11
11.0
 21
487.82219510669682
 31
0.0
  0
LINE
  5
7E4C
  8
0
 10
10.0
 20
498.82219510669671
 30
0.0
 11
13.0
 21
498.82219510669671
 31
0.0
  0
LINE
  5
7E4D
  8
0
 10
10.0
 20
499.82219510669671
 30
0.0
 11
11.0
 21
499.82219510669671
 31
0.0
  0
LINE
  5
7E4E
  8
0
 10
10.0
 20
500.82219510669682
 30
0.0
 11
11.0
 21
500.82219510669682
 31
0.0
  0
LINE
  5
7E4F
  8
0
 10
10.0
 20
501.82219510669671
 30
0.0
 11
11.0
 21
501.82219510669671
 31
0.0
  0
LINE
  5
7E50
  8
0
 10
10.0
 20
502.8221951066966
 30
0.0
 11
11.0
 21
502.8221951066966
 31
0.0
  0
LINE
  5
7E51
  8
0
 10
10.0
 20
496.82219510669682
 30
0.0
 11
11.0
 21
496.82219510669682
 31
0.0
  0
LINE
  5
7E52
  8
0
 10
10.0
 20
497.82219510669671
 30
0.0
 11
11.0
 21
497.82219510669671
 31
0.0
  0
LINE
  5
7E53
  8
0
 10
10.0
 20
495.82219510669671
 30
0.0
 11
11.0
 21
495.82219510669671
 31
0.0
  0
LINE
  5
7E54
  8
0
 10
10.0
 20
503.82219510669671
 30
0.0
 11
12.0
 21
503.82219510669671
 31
0.0
  0
LINE
  5
7E55
  8
0
 10
10.0
 20
507.82219510669671
 30
0.0
 11
11.0
 21
507.82219510669671
 31
0.0
  0
LINE
  5
7E56
  8
0
 10
10.0
 20
506.8221951066966
 30
0.0
 11
11.0
 21
506.8221951066966
 31
0.0
  0
LINE
  5
7E57
  8
0
 10
10.0
 20
505.82219510669671
 30
0.0
 11
11.0
 21
505.82219510669671
 31
0.0
  0
LINE
  5
7E58
  8
0
 10
10.0
 20
504.82219510669682
 30
0.0
 11
11.0
 21
504.82219510669682
 31
0.0
  0
TEXT
  5
7E59
  8
0
 10
14.997089773706341
 20
457.82219510669671
 30
0.0
 40
2.0
  1
55
 72
     2
 11
18.330423107039682
 21
458.82219510669682
 31
0.0
 73
     2
  0
TEXT
  5
7E5A
  8
0
 10
14.99708977370635
 20
467.82219510669682
 30
0.0
 40
2.0
  1
54
 72
     2
 11
18.330423107039682
 21
468.82219510669671
 31
0.0
 73
     2
  0
TEXT
  5
7E5B
  8
0
 10
14.997089773706341
 20
477.82219510669671
 30
0.0
 40
2.0
  1
53
 72
     2
 11
18.330423107039682
 21
478.82219510669671
 31
0.0
 73
     2
  0
TEXT
  5
7E5C
  8
0
 10
14.997089773706341
 20
487.82219510669682
 30
0.0
 40
2.0
  1
52
 72
     2
 11
18.330423107039682
 21
488.82219510669671
 31
0.0
 73
     2
  0
TEXT
  5
7E5D
  8
0
 10
15.66375644037301
 20
497.8221951066966
 30
0.0
 40
2.0
  1
51
 72
     2
 11
18.330423107039682
 21
498.82219510669671
 31
0.0
 73
     2
  0
TEXT
  5
7E5E
  8
0
 10
14.997089773706341
 20
447.8221951066966
 30
0.0
 40
2.0
  1
56
 72
     2
 11
18.330423107039682
 21
448.82219510669671
 31
0.0
 73
     2
  0
TEXT
  5
7E5F
  8
0
 10
14.99708977370635
 20
437.82219510669682
 30
0.0
 40
2.0
  1
57
 72
     2
 11
18.330423107039682
 21
438.82219510669671
 31
0.0
 73
     2
  0
TEXT
  5
7E60
  8
0
 10
14.997089773706341
 20
427.82219510669671
 30
0.0
 40
2.0
  1
58
 72
     2
 11
18.330423107039682
 21
428.82219510669671
 31
0.0
 73
     2
  0
TEXT
  5
7E61
  8
0
 10
14.997089773706341
 20
417.82219510669682
 30
0.0
 40
2.0
  1
59
 72
     2
 11
18.330423107039682
 21
418.82219510669671
 31
0.0
 73
     2
  0
TEXT
  5
7E62
  8
0
 10
15.33042310703968
 20
407.82219510669671
 30
0.0
 40
2.0
  1
60
 72
     2
 11
18.330423107039682
 21
408.82219510669682
 31
0.0
 73
     2
  0
TEXT
  5
7E63
  8
0
 10
14.997089773706341
 20
317.82219510669682
 30
0.0
 40
2.0
  1
69
 72
     2
 11
18.330423107039682
 21
318.82219510669682
 31
0.0
 73
     2
  0
LINE
  5
7E64
  8
0
 10
10.0
 20
308.82219510669688
 30
0.0
 11
13.0
 21
308.82219510669688
 31
0.0
  0
LINE
  5
7E65
  8
0
 10
10.0
 20
309.82219510669682
 30
0.0
 11
11.0
 21
309.82219510669682
 31
0.0
  0
LINE
  5
7E66
  8
0
 10
10.0
 20
318.82219510669682
 30
0.0
 11
13.0
 21
318.82219510669682
 31
0.0
  0
LINE
  5
7E67
  8
0
 10
10.0
 20
317.82219510669688
 30
0.0
 11
11.0
 21
317.82219510669688
 31
0.0
  0
LINE
  5
7E68
  8
0
 10
10.0
 20
316.82219510669682
 30
0.0
 11
11.0
 21
316.82219510669682
 31
0.0
  0
LINE
  5
7E69
  8
0
 10
10.0
 20
315.82219510669682
 30
0.0
 11
11.0
 21
315.82219510669682
 31
0.0
  0
LINE
  5
7E6A
  8
0
 10
10.0
 20
314.82219510669682
 30
0.0
 11
11.0
 21
314.82219510669682
 31
0.0
  0
LINE
  5
7E6B
  8
0
 10
10.0
 20
313.82219510669682
 30
0.0
 11
12.0
 21
313.82219510669682
 31
0.0
  0
LINE
  5
7E6C
  8
0
 10
10.0
 20
310.82219510669688
 30
0.0
 11
11.0
 21
310.82219510669688
 31
0.0
  0
LINE
  5
7E6D
  8
0
 10
10.0
 20
311.82219510669682
 30
0.0
 11
11.0
 21
311.82219510669682
 31
0.0
  0
LINE
  5
7E6E
  8
0
 10
10.0
 20
312.82219510669688
 30
0.0
 11
11.0
 21
312.82219510669688
 31
0.0
  0
TEXT
  5
7E6F
  8
0
 10
15.33042310703968
 20
307.82219510669682
 30
0.0
 40
2.0
  1
70
 72
     2
 11
18.330423107039682
 21
308.82219510669688
 31
0.0
 73
     2
  0
LINE
  5
7E70
  8
0
 10
10.0
 20
327.82219510669688
 30
0.0
 11
11.0
 21
327.82219510669688
 31
0.0
  0
LINE
  5
7E71
  8
0
 10
10.0
 20
326.82219510669682
 30
0.0
 11
11.0
 21
326.82219510669682
 31
0.0
  0
LINE
  5
7E72
  8
0
 10
10.0
 20
325.82219510669682
 30
0.0
 11
11.0
 21
325.82219510669682
 31
0.0
  0
LINE
  5
7E73
  8
0
 10
10.0
 20
324.82219510669682
 30
0.0
 11
11.0
 21
324.82219510669682
 31
0.0
  0
LINE
  5
7E74
  8
0
 10
10.0
 20
321.82219510669688
 30
0.0
 11
11.0
 21
321.82219510669688
 31
0.0
  0
LINE
  5
7E75
  8
0
 10
10.0
 20
322.82219510669682
 30
0.0
 11
11.0
 21
322.82219510669682
 31
0.0
  0
LINE
  5
7E76
  8
0
 10
10.0
 20
323.82219510669682
 30
0.0
 11
12.0
 21
323.82219510669682
 31
0.0
  0
LINE
  5
7E77
  8
0
 10
10.0
 20
319.82219510669688
 30
0.0
 11
11.0
 21
319.82219510669688
 31
0.0
  0
LINE
  5
7E78
  8
0
 10
10.0
 20
320.82219510669682
 30
0.0
 11
11.0
 21
320.82219510669682
 31
0.0
  0
LINE
  5
7E79
  8
0
 10
10.0
 20
328.82219510669682
 30
0.0
 11
13.0
 21
328.82219510669682
 31
0.0
  0
LINE
  5
7E7A
  8
0
 10
10.0
 20
330.82219510669682
 30
0.0
 11
11.0
 21
330.82219510669682
 31
0.0
  0
LINE
  5
7E7B
  8
0
 10
10.0
 20
331.82219510669688
 30
0.0
 11
11.0
 21
331.82219510669688
 31
0.0
  0
LINE
  5
7E7C
  8
0
 10
10.0
 20
335.82219510669688
 30
0.0
 11
11.0
 21
335.82219510669688
 31
0.0
  0
LINE
  5
7E7D
  8
0
 10
10.0
 20
334.82219510669682
 30
0.0
 11
11.0
 21
334.82219510669682
 31
0.0
  0
LINE
  5
7E7E
  8
0
 10
10.0
 20
332.82219510669682
 30
0.0
 11
11.0
 21
332.82219510669682
 31
0.0
  0
LINE
  5
7E7F
  8
0
 10
10.0
 20
333.82219510669688
 30
0.0
 11
12.0
 21
333.82219510669688
 31
0.0
  0
LINE
  5
7E80
  8
0
 10
10.0
 20
329.82219510669688
 30
0.0
 11
11.0
 21
329.82219510669688
 31
0.0
  0
TEXT
  5
7E81
  8
0
 10
14.997089773706341
 20
327.82219510669688
 30
0.0
 40
2.0
  1
68
 72
     2
 11
18.330423107039682
 21
328.82219510669682
 31
0.0
 73
     2
  0
LINE
  5
7E82
  8
0
 10
10.0
 20
338.82219510669682
 30
0.0
 11
13.0
 21
338.82219510669682
 31
0.0
  0
LINE
  5
7E83
  8
0
 10
10.0
 20
339.82219510669682
 30
0.0
 11
11.0
 21
339.82219510669682
 31
0.0
  0
LINE
  5
7E84
  8
0
 10
10.0
 20
340.82219510669682
 30
0.0
 11
11.0
 21
340.82219510669682
 31
0.0
  0
LINE
  5
7E85
  8
0
 10
10.0
 20
341.82219510669682
 30
0.0
 11
11.0
 21
341.82219510669682
 31
0.0
  0
LINE
  5
7E86
  8
0
 10
10.0
 20
342.82219510669688
 30
0.0
 11
11.0
 21
342.82219510669688
 31
0.0
  0
LINE
  5
7E87
  8
0
 10
10.0
 20
344.82219510669688
 30
0.0
 11
11.0
 21
344.82219510669688
 31
0.0
  0
LINE
  5
7E88
  8
0
 10
10.0
 20
343.82219510669671
 30
0.0
 11
12.0
 21
343.82219510669671
 31
0.0
  0
LINE
  5
7E89
  8
0
 10
10.0
 20
337.82219510669688
 30
0.0
 11
11.0
 21
337.82219510669688
 31
0.0
  0
LINE
  5
7E8A
  8
0
 10
10.0
 20
336.82219510669682
 30
0.0
 11
11.0
 21
336.82219510669682
 31
0.0
  0
LINE
  5
7E8B
  8
0
 10
10.0
 20
348.82219510669671
 30
0.0
 11
13.0
 21
348.82219510669671
 31
0.0
  0
LINE
  5
7E8C
  8
0
 10
10.0
 20
347.82219510669671
 30
0.0
 11
11.0
 21
347.82219510669671
 31
0.0
  0
LINE
  5
7E8D
  8
0
 10
10.0
 20
346.82219510669688
 30
0.0
 11
11.0
 21
346.82219510669688
 31
0.0
  0
LINE
  5
7E8E
  8
0
 10
10.0
 20
349.82219510669671
 30
0.0
 11
11.0
 21
349.82219510669671
 31
0.0
  0
LINE
  5
7E8F
  8
0
 10
10.0
 20
350.82219510669671
 30
0.0
 11
11.0
 21
350.82219510669671
 31
0.0
  0
LINE
  5
7E90
  8
0
 10
10.0
 20
351.82219510669671
 30
0.0
 11
11.0
 21
351.82219510669671
 31
0.0
  0
LINE
  5
7E91
  8
0
 10
10.0
 20
352.82219510669671
 30
0.0
 11
11.0
 21
352.82219510669671
 31
0.0
  0
LINE
  5
7E92
  8
0
 10
10.0
 20
353.82219510669671
 30
0.0
 11
12.0
 21
353.82219510669671
 31
0.0
  0
LINE
  5
7E93
  8
0
 10
10.0
 20
345.82219510669671
 30
0.0
 11
11.0
 21
345.82219510669671
 31
0.0
  0
TEXT
  5
7E94
  8
0
 10
14.99708977370635
 20
337.82219510669688
 30
0.0
 40
2.0
  1
67
 72
     2
 11
18.330423107039682
 21
338.82219510669682
 31
0.0
 73
     2
  0
TEXT
  5
7E95
  8
0
 10
14.997089773706341
 20
347.82219510669671
 30
0.0
 40
2.0
  1
66
 72
     2
 11
18.330423107039682
 21
348.82219510669671
 31
0.0
 73
     2
  0
LINE
  5
7E96
  8
0
 10
10.0
 20
358.82219510669671
 30
0.0
 11
13.0
 21
358.82219510669671
 31
0.0
  0
LINE
  5
7E97
  8
0
 10
10.0
 20
362.82219510669671
 30
0.0
 11
11.0
 21
362.82219510669671
 31
0.0
  0
LINE
  5
7E98
  8
0
 10
10.0
 20
357.82219510669671
 30
0.0
 11
11.0
 21
357.82219510669671
 31
0.0
  0
LINE
  5
7E99
  8
0
 10
10.0
 20
356.82219510669671
 30
0.0
 11
11.0
 21
356.82219510669671
 31
0.0
  0
LINE
  5
7E9A
  8
0
 10
10.0
 20
355.82219510669671
 30
0.0
 11
11.0
 21
355.82219510669671
 31
0.0
  0
LINE
  5
7E9B
  8
0
 10
10.0
 20
354.82219510669671
 30
0.0
 11
11.0
 21
354.82219510669671
 31
0.0
  0
LINE
  5
7E9C
  8
0
 10
10.0
 20
359.82219510669671
 30
0.0
 11
11.0
 21
359.82219510669671
 31
0.0
  0
LINE
  5
7E9D
  8
0
 10
10.0
 20
360.82219510669671
 30
0.0
 11
11.0
 21
360.82219510669671
 31
0.0
  0
LINE
  5
7E9E
  8
0
 10
10.0
 20
361.82219510669671
 30
0.0
 11
11.0
 21
361.82219510669671
 31
0.0
  0
LINE
  5
7E9F
  8
0
 10
10.0
 20
368.82219510669671
 30
0.0
 11
13.0
 21
368.82219510669671
 31
0.0
  0
LINE
  5
7EA0
  8
0
 10
10.0
 20
367.82219510669671
 30
0.0
 11
11.0
 21
367.82219510669671
 31
0.0
  0
LINE
  5
7EA1
  8
0
 10
10.0
 20
366.82219510669671
 30
0.0
 11
11.0
 21
366.82219510669671
 31
0.0
  0
LINE
  5
7EA2
  8
0
 10
10.0
 20
365.82219510669671
 30
0.0
 11
11.0
 21
365.82219510669671
 31
0.0
  0
LINE
  5
7EA3
  8
0
 10
10.0
 20
364.82219510669671
 30
0.0
 11
11.0
 21
364.82219510669671
 31
0.0
  0
LINE
  5
7EA4
  8
0
 10
10.0
 20
369.82219510669671
 30
0.0
 11
11.0
 21
369.82219510669671
 31
0.0
  0
LINE
  5
7EA5
  8
0
 10
10.0
 20
370.82219510669671
 30
0.0
 11
11.0
 21
370.82219510669671
 31
0.0
  0
LINE
  5
7EA6
  8
0
 10
10.0
 20
363.82219510669671
 30
0.0
 11
12.0
 21
363.82219510669671
 31
0.0
  0
TEXT
  5
7EA7
  8
0
 10
14.997089773706341
 20
357.82219510669671
 30
0.0
 40
2.0
  1
65
 72
     2
 11
18.330423107039682
 21
358.82219510669671
 31
0.0
 73
     2
  0
TEXT
  5
7EA8
  8
0
 10
14.99708977370635
 20
367.82219510669671
 30
0.0
 40
2.0
  1
64
 72
     2
 11
18.330423107039682
 21
368.82219510669671
 31
0.0
 73
     2
  0
TEXT
  5
7EA9
  8
0
 10
14.997089773706341
 20
387.82219510669671
 30
0.0
 40
2.0
  1
62
 72
     2
 11
18.330423107039682
 21
388.82219510669671
 31
0.0
 73
     2
  0
LINE
  5
7EAA
  8
0
 10
10.0
 20
378.82219510669671
 30
0.0
 11
13.0
 21
378.82219510669671
 31
0.0
  0
LINE
  5
7EAB
  8
0
 10
10.0
 20
379.82219510669671
 30
0.0
 11
11.0
 21
379.82219510669671
 31
0.0
  0
LINE
  5
7EAC
  8
0
 10
10.0
 20
374.82219510669671
 30
0.0
 11
11.0
 21
374.82219510669671
 31
0.0
  0
LINE
  5
7EAD
  8
0
 10
10.0
 20
371.82219510669671
 30
0.0
 11
11.0
 21
371.82219510669671
 31
0.0
  0
LINE
  5
7EAE
  8
0
 10
10.0
 20
372.82219510669671
 30
0.0
 11
11.0
 21
372.82219510669671
 31
0.0
  0
LINE
  5
7EAF
  8
0
 10
10.0
 20
377.82219510669671
 30
0.0
 11
11.0
 21
377.82219510669671
 31
0.0
  0
LINE
  5
7EB0
  8
0
 10
10.0
 20
376.82219510669671
 30
0.0
 11
11.0
 21
376.82219510669671
 31
0.0
  0
LINE
  5
7EB1
  8
0
 10
10.0
 20
375.82219510669671
 30
0.0
 11
11.0
 21
375.82219510669671
 31
0.0
  0
LINE
  5
7EB2
  8
0
 10
10.0
 20
373.82219510669671
 30
0.0
 11
12.0
 21
373.82219510669671
 31
0.0
  0
LINE
  5
7EB3
  8
0
 10
10.0
 20
388.82219510669671
 30
0.0
 11
13.0
 21
388.82219510669671
 31
0.0
  0
LINE
  5
7EB4
  8
0
 10
10.0
 20
387.82219510669671
 30
0.0
 11
11.0
 21
387.82219510669671
 31
0.0
  0
LINE
  5
7EB5
  8
0
 10
10.0
 20
385.82219510669671
 30
0.0
 11
11.0
 21
385.82219510669671
 31
0.0
  0
LINE
  5
7EB6
  8
0
 10
10.0
 20
384.82219510669671
 30
0.0
 11
11.0
 21
384.82219510669671
 31
0.0
  0
LINE
  5
7EB7
  8
0
 10
10.0
 20
380.82219510669671
 30
0.0
 11
11.0
 21
380.82219510669671
 31
0.0
  0
LINE
  5
7EB8
  8
0
 10
10.0
 20
381.82219510669671
 30
0.0
 11
11.0
 21
381.82219510669671
 31
0.0
  0
LINE
  5
7EB9
  8
0
 10
10.0
 20
382.82219510669682
 30
0.0
 11
11.0
 21
382.82219510669682
 31
0.0
  0
LINE
  5
7EBA
  8
0
 10
10.0
 20
386.82219510669671
 30
0.0
 11
11.0
 21
386.82219510669671
 31
0.0
  0
LINE
  5
7EBB
  8
0
 10
10.0
 20
383.82219510669671
 30
0.0
 11
12.0
 21
383.82219510669671
 31
0.0
  0
TEXT
  5
7EBC
  8
0
 10
14.997089773706341
 20
377.82219510669671
 30
0.0
 40
2.0
  1
63
 72
     2
 11
18.330423107039682
 21
378.82219510669671
 31
0.0
 73
     2
  0
LINE
  5
7EBD
  8
0
 10
10.0
 20
395.82219510669671
 30
0.0
 11
11.0
 21
395.82219510669671
 31
0.0
  0
LINE
  5
7EBE
  8
0
 10
10.0
 20
396.82219510669671
 30
0.0
 11
11.0
 21
396.82219510669671
 31
0.0
  0
LINE
  5
7EBF
  8
0
 10
10.0
 20
394.82219510669671
 30
0.0
 11
11.0
 21
394.82219510669671
 31
0.0
  0
LINE
  5
7EC0
  8
0
 10
10.0
 20
389.82219510669671
 30
0.0
 11
11.0
 21
389.82219510669671
 31
0.0
  0
LINE
  5
7EC1
  8
0
 10
10.0
 20
390.82219510669671
 30
0.0
 11
11.0
 21
390.82219510669671
 31
0.0
  0
LINE
  5
7EC2
  8
0
 10
10.0
 20
391.82219510669671
 30
0.0
 11
11.0
 21
391.82219510669671
 31
0.0
  0
LINE
  5
7EC3
  8
0
 10
10.0
 20
392.82219510669671
 30
0.0
 11
11.0
 21
392.82219510669671
 31
0.0
  0
LINE
  5
7EC4
  8
0
 10
10.0
 20
393.82219510669671
 30
0.0
 11
12.0
 21
393.82219510669671
 31
0.0
  0
LINE
  5
7EC5
  8
0
 10
10.0
 20
398.82219510669671
 30
0.0
 11
13.0
 21
398.82219510669671
 31
0.0
  0
LINE
  5
7EC6
  8
0
 10
10.0
 20
404.82219510669682
 30
0.0
 11
11.0
 21
404.82219510669682
 31
0.0
  0
LINE
  5
7EC7
  8
0
 10
10.0
 20
405.82219510669671
 30
0.0
 11
11.0
 21
405.82219510669671
 31
0.0
  0
LINE
  5
7EC8
  8
0
 10
10.0
 20
403.82219510669671
 30
0.0
 11
12.0
 21
403.82219510669671
 31
0.0
  0
LINE
  5
7EC9
  8
0
 10
10.0
 20
397.82219510669671
 30
0.0
 11
11.0
 21
397.82219510669671
 31
0.0
  0
LINE
  5
7ECA
  8
0
 10
10.0
 20
402.8221951066966
 30
0.0
 11
11.0
 21
402.8221951066966
 31
0.0
  0
LINE
  5
7ECB
  8
0
 10
10.0
 20
401.82219510669671
 30
0.0
 11
11.0
 21
401.82219510669671
 31
0.0
  0
LINE
  5
7ECC
  8
0
 10
10.0
 20
400.82219510669682
 30
0.0
 11
11.0
 21
400.82219510669682
 31
0.0
  0
LINE
  5
7ECD
  8
0
 10
10.0
 20
399.8221951066966
 30
0.0
 11
11.0
 21
399.8221951066966
 31
0.0
  0
TEXT
  5
7ECE
  8
0
 10
15.66375644037301
 20
397.82219510669671
 30
0.0
 40
2.0
  1
61
 72
     2
 11
18.330423107039682
 21
398.82219510669671
 31
0.0
 73
     2
  0
LINE
  5
7ECF
  8
0
 10
10.0
 20
406.8221951066966
 30
0.0
 11
11.0
 21
406.8221951066966
 31
0.0
  0
LINE
  5
7ED0
  8
0
 10
10.0
 20
407.82219510669671
 30
0.0
 11
11.0
 21
407.82219510669671
 31
0.0
  0
LINE
  5
7ED1
  8
0
 10
10.0
 20
212.82219510669691
 30
0.0
 11
11.0
 21
212.82219510669691
 31
0.0
  0
LINE
  5
7ED2
  8
0
 10
10.0
 20
211.82219510669671
 30
0.0
 11
11.0
 21
211.82219510669671
 31
0.0
  0
LINE
  5
7ED3
  8
0
 10
10.0
 20
210.82219510669691
 30
0.0
 11
11.0
 21
210.82219510669691
 31
0.0
  0
LINE
  5
7ED4
  8
0
 10
10.0
 20
213.82219510669671
 30
0.0
 11
12.0
 21
213.82219510669671
 31
0.0
  0
LINE
  5
7ED5
  8
0
 10
10.0
 20
209.82219510669671
 30
0.0
 11
11.0
 21
209.82219510669671
 31
0.0
  0
LINE
  5
7ED6
  8
0
 10
10.0
 20
218.82219510669691
 30
0.0
 11
13.0
 21
218.82219510669691
 31
0.0
  0
LINE
  5
7ED7
  8
0
 10
10.0
 20
220.82219510669691
 30
0.0
 11
11.0
 21
220.82219510669691
 31
0.0
  0
LINE
  5
7ED8
  8
0
 10
10.0
 20
219.82219510669691
 30
0.0
 11
11.0
 21
219.82219510669691
 31
0.0
  0
LINE
  5
7ED9
  8
0
 10
10.0
 20
222.82219510669691
 30
0.0
 11
11.0
 21
222.82219510669691
 31
0.0
  0
LINE
  5
7EDA
  8
0
 10
10.0
 20
221.82219510669691
 30
0.0
 11
11.0
 21
221.82219510669691
 31
0.0
  0
LINE
  5
7EDB
  8
0
 10
10.0
 20
214.82219510669691
 30
0.0
 11
11.0
 21
214.82219510669691
 31
0.0
  0
LINE
  5
7EDC
  8
0
 10
10.0
 20
215.82219510669671
 30
0.0
 11
11.0
 21
215.82219510669671
 31
0.0
  0
LINE
  5
7EDD
  8
0
 10
10.0
 20
216.82219510669691
 30
0.0
 11
11.0
 21
216.82219510669691
 31
0.0
  0
LINE
  5
7EDE
  8
0
 10
10.0
 20
217.82219510669691
 30
0.0
 11
11.0
 21
217.82219510669691
 31
0.0
  0
LINE
  5
7EDF
  8
0
 10
10.0
 20
228.82219510669671
 30
0.0
 11
13.0
 21
228.82219510669671
 31
0.0
  0
LINE
  5
7EE0
  8
0
 10
10.0
 20
229.82219510669691
 30
0.0
 11
11.0
 21
229.82219510669691
 31
0.0
  0
LINE
  5
7EE1
  8
0
 10
10.0
 20
231.82219510669691
 30
0.0
 11
11.0
 21
231.82219510669691
 31
0.0
  0
LINE
  5
7EE2
  8
0
 10
10.0
 20
230.82219510669671
 30
0.0
 11
11.0
 21
230.82219510669671
 31
0.0
  0
LINE
  5
7EE3
  8
0
 10
10.0
 20
223.82219510669691
 30
0.0
 11
12.0
 21
223.82219510669691
 31
0.0
  0
LINE
  5
7EE4
  8
0
 10
10.0
 20
224.82219510669691
 30
0.0
 11
11.0
 21
224.82219510669691
 31
0.0
  0
LINE
  5
7EE5
  8
0
 10
10.0
 20
225.82219510669691
 30
0.0
 11
11.0
 21
225.82219510669691
 31
0.0
  0
LINE
  5
7EE6
  8
0
 10
10.0
 20
226.82219510669691
 30
0.0
 11
11.0
 21
226.82219510669691
 31
0.0
  0
LINE
  5
7EE7
  8
0
 10
10.0
 20
227.82219510669691
 30
0.0
 11
11.0
 21
227.82219510669691
 31
0.0
  0
TEXT
  5
7EE8
  8
0
 10
14.99708977370635
 20
217.82219510669691
 30
0.0
 40
2.0
  1
79
 72
     2
 11
18.330423107039682
 21
218.82219510669691
 31
0.0
 73
     2
  0
TEXT
  5
7EE9
  8
0
 10
14.99708977370635
 20
227.82219510669671
 30
0.0
 40
2.0
  1
78
 72
     2
 11
18.330423107039682
 21
228.82219510669671
 31
0.0
 73
     2
  0
TEXT
  5
7EEA
  8
0
 10
14.997089773706341
 20
247.8221951066966
 30
0.0
 40
2.0
  1
76
 72
     2
 11
18.330423107039682
 21
248.8221951066966
 31
0.0
 73
     2
  0
LINE
  5
7EEB
  8
0
 10
10.0
 20
238.82219510669671
 30
0.0
 11
13.0
 21
238.82219510669671
 31
0.0
  0
LINE
  5
7EEC
  8
0
 10
10.0
 20
233.82219510669691
 30
0.0
 11
12.0
 21
233.82219510669691
 31
0.0
  0
LINE
  5
7EED
  8
0
 10
10.0
 20
232.82219510669671
 30
0.0
 11
11.0
 21
232.82219510669671
 31
0.0
  0
LINE
  5
7EEE
  8
0
 10
10.0
 20
234.82219510669671
 30
0.0
 11
11.0
 21
234.82219510669671
 31
0.0
  0
LINE
  5
7EEF
  8
0
 10
10.0
 20
235.82219510669691
 30
0.0
 11
11.0
 21
235.82219510669691
 31
0.0
  0
LINE
  5
7EF0
  8
0
 10
10.0
 20
236.82219510669671
 30
0.0
 11
11.0
 21
236.82219510669671
 31
0.0
  0
LINE
  5
7EF1
  8
0
 10
10.0
 20
237.82219510669691
 30
0.0
 11
11.0
 21
237.82219510669691
 31
0.0
  0
LINE
  5
7EF2
  8
0
 10
10.0
 20
240.82219510669671
 30
0.0
 11
11.0
 21
240.82219510669671
 31
0.0
  0
LINE
  5
7EF3
  8
0
 10
10.0
 20
239.82219510669691
 30
0.0
 11
11.0
 21
239.82219510669691
 31
0.0
  0
LINE
  5
7EF4
  8
0
 10
10.0
 20
248.8221951066966
 30
0.0
 11
13.0
 21
248.8221951066966
 31
0.0
  0
LINE
  5
7EF5
  8
0
 10
10.0
 20
245.82219510669671
 30
0.0
 11
11.0
 21
245.82219510669671
 31
0.0
  0
LINE
  5
7EF6
  8
0
 10
10.0
 20
246.8221951066966
 30
0.0
 11
11.0
 21
246.8221951066966
 31
0.0
  0
LINE
  5
7EF7
  8
0
 10
10.0
 20
247.8221951066966
 30
0.0
 11
11.0
 21
247.8221951066966
 31
0.0
  0
LINE
  5
7EF8
  8
0
 10
10.0
 20
243.82219510669691
 30
0.0
 11
12.0
 21
243.82219510669691
 31
0.0
  0
LINE
  5
7EF9
  8
0
 10
10.0
 20
244.82219510669691
 30
0.0
 11
11.0
 21
244.82219510669691
 31
0.0
  0
LINE
  5
7EFA
  8
0
 10
10.0
 20
242.82219510669691
 30
0.0
 11
11.0
 21
242.82219510669691
 31
0.0
  0
LINE
  5
7EFB
  8
0
 10
10.0
 20
241.82219510669691
 30
0.0
 11
11.0
 21
241.82219510669691
 31
0.0
  0
TEXT
  5
7EFC
  8
0
 10
14.99708977370635
 20
237.82219510669671
 30
0.0
 40
2.0
  1
77
 72
     2
 11
18.330423107039682
 21
238.82219510669671
 31
0.0
 73
     2
  0
LINE
  5
7EFD
  8
0
 10
10.0
 20
254.82219510669691
 30
0.0
 11
11.0
 21
254.82219510669691
 31
0.0
  0
LINE
  5
7EFE
  8
0
 10
10.0
 20
255.8221951066966
 30
0.0
 11
11.0
 21
255.8221951066966
 31
0.0
  0
LINE
  5
7EFF
  8
0
 10
10.0
 20
256.82219510669688
 30
0.0
 11
11.0
 21
256.82219510669688
 31
0.0
  0
LINE
  5
7F00
  8
0
 10
10.0
 20
257.82219510669688
 30
0.0
 11
11.0
 21
257.82219510669688
 31
0.0
  0
LINE
  5
7F01
  8
0
 10
10.0
 20
253.8221951066966
 30
0.0
 11
12.0
 21
253.8221951066966
 31
0.0
  0
LINE
  5
7F02
  8
0
 10
10.0
 20
252.82219510669691
 30
0.0
 11
11.0
 21
252.82219510669691
 31
0.0
  0
LINE
  5
7F03
  8
0
 10
10.0
 20
251.8221951066966
 30
0.0
 11
11.0
 21
251.8221951066966
 31
0.0
  0
LINE
  5
7F04
  8
0
 10
10.0
 20
250.8221951066966
 30
0.0
 11
11.0
 21
250.8221951066966
 31
0.0
  0
LINE
  5
7F05
  8
0
 10
10.0
 20
249.8221951066966
 30
0.0
 11
11.0
 21
249.8221951066966
 31
0.0
  0
LINE
  5
7F06
  8
0
 10
10.0
 20
258.82219510669688
 30
0.0
 11
13.0
 21
258.82219510669688
 31
0.0
  0
LINE
  5
7F07
  8
0
 10
10.0
 20
263.82219510669688
 30
0.0
 11
12.0
 21
263.82219510669688
 31
0.0
  0
LINE
  5
7F08
  8
0
 10
10.0
 20
264.82219510669688
 30
0.0
 11
11.0
 21
264.82219510669688
 31
0.0
  0
LINE
  5
7F09
  8
0
 10
10.0
 20
265.82219510669688
 30
0.0
 11
11.0
 21
265.82219510669688
 31
0.0
  0
LINE
  5
7F0A
  8
0
 10
10.0
 20
266.82219510669688
 30
0.0
 11
11.0
 21
266.82219510669688
 31
0.0
  0
LINE
  5
7F0B
  8
0
 10
10.0
 20
261.82219510669688
 30
0.0
 11
11.0
 21
261.82219510669688
 31
0.0
  0
LINE
  5
7F0C
  8
0
 10
10.0
 20
260.82219510669688
 30
0.0
 11
11.0
 21
260.82219510669688
 31
0.0
  0
LINE
  5
7F0D
  8
0
 10
10.0
 20
259.82219510669688
 30
0.0
 11
11.0
 21
259.82219510669688
 31
0.0
  0
LINE
  5
7F0E
  8
0
 10
10.0
 20
262.82219510669688
 30
0.0
 11
11.0
 21
262.82219510669688
 31
0.0
  0
TEXT
  5
7F0F
  8
0
 10
14.99708977370635
 20
257.82219510669688
 30
0.0
 40
2.0
  1
75
 72
     2
 11
18.330423107039682
 21
258.82219510669688
 31
0.0
 73
     2
  0
LINE
  5
7F10
  8
0
 10
10.0
 20
268.82219510669688
 30
0.0
 11
13.0
 21
268.82219510669688
 31
0.0
  0
LINE
  5
7F11
  8
0
 10
10.0
 20
273.82219510669688
 30
0.0
 11
12.0
 21
273.82219510669688
 31
0.0
  0
LINE
  5
7F12
  8
0
 10
10.0
 20
272.82219510669688
 30
0.0
 11
11.0
 21
272.82219510669688
 31
0.0
  0
LINE
  5
7F13
  8
0
 10
10.0
 20
271.82219510669688
 30
0.0
 11
11.0
 21
271.82219510669688
 31
0.0
  0
LINE
  5
7F14
  8
0
 10
10.0
 20
274.82219510669688
 30
0.0
 11
11.0
 21
274.82219510669688
 31
0.0
  0
LINE
  5
7F15
  8
0
 10
10.0
 20
270.82219510669688
 30
0.0
 11
11.0
 21
270.82219510669688
 31
0.0
  0
LINE
  5
7F16
  8
0
 10
10.0
 20
269.82219510669688
 30
0.0
 11
11.0
 21
269.82219510669688
 31
0.0
  0
LINE
  5
7F17
  8
0
 10
10.0
 20
267.82219510669688
 30
0.0
 11
11.0
 21
267.82219510669688
 31
0.0
  0
LINE
  5
7F18
  8
0
 10
10.0
 20
278.82219510669688
 30
0.0
 11
13.0
 21
278.82219510669688
 31
0.0
  0
LINE
  5
7F19
  8
0
 10
10.0
 20
283.82219510669688
 30
0.0
 11
12.0
 21
283.82219510669688
 31
0.0
  0
LINE
  5
7F1A
  8
0
 10
10.0
 20
282.82219510669682
 30
0.0
 11
11.0
 21
282.82219510669682
 31
0.0
  0
LINE
  5
7F1B
  8
0
 10
10.0
 20
281.82219510669682
 30
0.0
 11
11.0
 21
281.82219510669682
 31
0.0
  0
LINE
  5
7F1C
  8
0
 10
10.0
 20
280.82219510669688
 30
0.0
 11
11.0
 21
280.82219510669688
 31
0.0
  0
LINE
  5
7F1D
  8
0
 10
10.0
 20
275.82219510669688
 30
0.0
 11
11.0
 21
275.82219510669688
 31
0.0
  0
LINE
  5
7F1E
  8
0
 10
10.0
 20
276.82219510669688
 30
0.0
 11
11.0
 21
276.82219510669688
 31
0.0
  0
LINE
  5
7F1F
  8
0
 10
10.0
 20
277.82219510669688
 30
0.0
 11
11.0
 21
277.82219510669688
 31
0.0
  0
LINE
  5
7F20
  8
0
 10
10.0
 20
279.82219510669688
 30
0.0
 11
11.0
 21
279.82219510669688
 31
0.0
  0
TEXT
  5
7F21
  8
0
 10
14.99708977370635
 20
267.82219510669688
 30
0.0
 40
2.0
  1
74
 72
     2
 11
18.330423107039682
 21
268.82219510669688
 31
0.0
 73
     2
  0
TEXT
  5
7F22
  8
0
 10
14.99708977370635
 20
277.82219510669688
 30
0.0
 40
2.0
  1
73
 72
     2
 11
18.330423107039682
 21
278.82219510669688
 31
0.0
 73
     2
  0
LINE
  5
7F23
  8
0
 10
10.0
 20
288.82219510669682
 30
0.0
 11
13.0
 21
288.82219510669682
 31
0.0
  0
LINE
  5
7F24
  8
0
 10
10.0
 20
292.82219510669688
 30
0.0
 11
11.0
 21
292.82219510669688
 31
0.0
  0
LINE
  5
7F25
  8
0
 10
10.0
 20
291.82219510669682
 30
0.0
 11
11.0
 21
291.82219510669682
 31
0.0
  0
LINE
  5
7F26
  8
0
 10
10.0
 20
290.82219510669682
 30
0.0
 11
11.0
 21
290.82219510669682
 31
0.0
  0
LINE
  5
7F27
  8
0
 10
10.0
 20
289.82219510669682
 30
0.0
 11
11.0
 21
289.82219510669682
 31
0.0
  0
LINE
  5
7F28
  8
0
 10
10.0
 20
286.82219510669688
 30
0.0
 11
11.0
 21
286.82219510669688
 31
0.0
  0
LINE
  5
7F29
  8
0
 10
10.0
 20
284.82219510669682
 30
0.0
 11
11.0
 21
284.82219510669682
 31
0.0
  0
LINE
  5
7F2A
  8
0
 10
10.0
 20
285.82219510669688
 30
0.0
 11
11.0
 21
285.82219510669688
 31
0.0
  0
LINE
  5
7F2B
  8
0
 10
10.0
 20
287.82219510669682
 30
0.0
 11
11.0
 21
287.82219510669682
 31
0.0
  0
LINE
  5
7F2C
  8
0
 10
10.0
 20
298.82219510669682
 30
0.0
 11
13.0
 21
298.82219510669682
 31
0.0
  0
LINE
  5
7F2D
  8
0
 10
10.0
 20
299.82219510669682
 30
0.0
 11
11.0
 21
299.82219510669682
 31
0.0
  0
LINE
  5
7F2E
  8
0
 10
10.0
 20
300.82219510669682
 30
0.0
 11
11.0
 21
300.82219510669682
 31
0.0
  0
LINE
  5
7F2F
  8
0
 10
10.0
 20
301.82219510669682
 30
0.0
 11
11.0
 21
301.82219510669682
 31
0.0
  0
LINE
  5
7F30
  8
0
 10
10.0
 20
297.82219510669682
 30
0.0
 11
11.0
 21
297.82219510669682
 31
0.0
  0
LINE
  5
7F31
  8
0
 10
10.0
 20
293.82219510669682
 30
0.0
 11
12.0
 21
293.82219510669682
 31
0.0
  0
LINE
  5
7F32
  8
0
 10
10.0
 20
294.82219510669688
 30
0.0
 11
11.0
 21
294.82219510669688
 31
0.0
  0
LINE
  5
7F33
  8
0
 10
10.0
 20
296.82219510669682
 30
0.0
 11
11.0
 21
296.82219510669682
 31
0.0
  0
LINE
  5
7F34
  8
0
 10
10.0
 20
295.82219510669682
 30
0.0
 11
11.0
 21
295.82219510669682
 31
0.0
  0
TEXT
  5
7F35
  8
0
 10
14.99708977370635
 20
287.82219510669682
 30
0.0
 40
2.0
  1
72
 72
     2
 11
18.330423107039682
 21
288.82219510669682
 31
0.0
 73
     2
  0
TEXT
  5
7F36
  8
0
 10
15.66375644037301
 20
297.82219510669682
 30
0.0
 40
2.0
  1
71
 72
     2
 11
18.330423107039682
 21
298.82219510669682
 31
0.0
 73
     2
  0
LINE
  5
7F37
  8
0
 10
10.0
 20
307.82219510669682
 30
0.0
 11
11.0
 21
307.82219510669682
 31
0.0
  0
LINE
  5
7F38
  8
0
 10
10.0
 20
306.82219510669688
 30
0.0
 11
11.0
 21
306.82219510669688
 31
0.0
  0
LINE
  5
7F39
  8
0
 10
10.0
 20
302.82219510669688
 30
0.0
 11
11.0
 21
302.82219510669688
 31
0.0
  0
LINE
  5
7F3A
  8
0
 10
10.0
 20
303.82219510669682
 30
0.0
 11
12.0
 21
303.82219510669682
 31
0.0
  0
LINE
  5
7F3B
  8
0
 10
10.0
 20
305.82219510669682
 30
0.0
 11
11.0
 21
305.82219510669682
 31
0.0
  0
LINE
  5
7F3C
  8
0
 10
10.0
 20
304.82219510669688
 30
0.0
 11
11.0
 21
304.82219510669688
 31
0.0
  0
LINE
  5
7F3D
  8
0
 10
288.0
 20
209.82219510669671
 30
0.0
 11
287.0
 21
209.82219510669671
 31
0.0
  0
LINE
  5
7F3E
  8
0
 10
288.0
 20
218.82219510669691
 30
0.0
 11
285.0
 21
218.82219510669691
 31
0.0
  0
LINE
  5
7F3F
  8
0
 10
288.0
 20
217.82219510669691
 30
0.0
 11
287.0
 21
217.82219510669691
 31
0.0
  0
LINE
  5
7F40
  8
0
 10
288.0
 20
216.82219510669691
 30
0.0
 11
287.0
 21
216.82219510669691
 31
0.0
  0
LINE
  5
7F41
  8
0
 10
288.0
 20
215.82219510669671
 30
0.0
 11
287.0
 21
215.82219510669671
 31
0.0
  0
LINE
  5
7F42
  8
0
 10
288.0
 20
214.82219510669691
 30
0.0
 11
287.0
 21
214.82219510669691
 31
0.0
  0
LINE
  5
7F43
  8
0
 10
288.0
 20
213.82219510669671
 30
0.0
 11
286.0
 21
213.82219510669671
 31
0.0
  0
LINE
  5
7F44
  8
0
 10
288.0
 20
210.82219510669691
 30
0.0
 11
287.0
 21
210.82219510669691
 31
0.0
  0
LINE
  5
7F45
  8
0
 10
288.0
 20
211.82219510669671
 30
0.0
 11
287.0
 21
211.82219510669671
 31
0.0
  0
LINE
  5
7F46
  8
0
 10
288.0
 20
212.82219510669691
 30
0.0
 11
287.0
 21
212.82219510669691
 31
0.0
  0
LINE
  5
7F47
  8
0
 10
288.0
 20
226.82219510669691
 30
0.0
 11
287.0
 21
226.82219510669691
 31
0.0
  0
LINE
  5
7F48
  8
0
 10
288.0
 20
225.82219510669691
 30
0.0
 11
287.0
 21
225.82219510669691
 31
0.0
  0
LINE
  5
7F49
  8
0
 10
288.0
 20
224.82219510669691
 30
0.0
 11
287.0
 21
224.82219510669691
 31
0.0
  0
LINE
  5
7F4A
  8
0
 10
288.0
 20
223.82219510669691
 30
0.0
 11
286.0
 21
223.82219510669691
 31
0.0
  0
LINE
  5
7F4B
  8
0
 10
288.0
 20
221.82219510669691
 30
0.0
 11
287.0
 21
221.82219510669691
 31
0.0
  0
LINE
  5
7F4C
  8
0
 10
288.0
 20
222.82219510669691
 30
0.0
 11
287.0
 21
222.82219510669691
 31
0.0
  0
LINE
  5
7F4D
  8
0
 10
288.0
 20
219.82219510669691
 30
0.0
 11
287.0
 21
219.82219510669691
 31
0.0
  0
LINE
  5
7F4E
  8
0
 10
288.0
 20
220.82219510669691
 30
0.0
 11
287.0
 21
220.82219510669691
 31
0.0
  0
LINE
  5
7F4F
  8
0
 10
288.0
 20
228.82219510669671
 30
0.0
 11
285.0
 21
228.82219510669671
 31
0.0
  0
LINE
  5
7F50
  8
0
 10
288.0
 20
235.82219510669691
 30
0.0
 11
287.0
 21
235.82219510669691
 31
0.0
  0
LINE
  5
7F51
  8
0
 10
288.0
 20
234.82219510669671
 30
0.0
 11
287.0
 21
234.82219510669671
 31
0.0
  0
LINE
  5
7F52
  8
0
 10
288.0
 20
232.82219510669671
 30
0.0
 11
287.0
 21
232.82219510669671
 31
0.0
  0
LINE
  5
7F53
  8
0
 10
288.0
 20
233.82219510669691
 30
0.0
 11
286.0
 21
233.82219510669691
 31
0.0
  0
LINE
  5
7F54
  8
0
 10
288.0
 20
227.82219510669691
 30
0.0
 11
287.0
 21
227.82219510669691
 31
0.0
  0
LINE
  5
7F55
  8
0
 10
288.0
 20
230.82219510669671
 30
0.0
 11
287.0
 21
230.82219510669671
 31
0.0
  0
LINE
  5
7F56
  8
0
 10
288.0
 20
231.82219510669691
 30
0.0
 11
287.0
 21
231.82219510669691
 31
0.0
  0
LINE
  5
7F57
  8
0
 10
288.0
 20
229.82219510669691
 30
0.0
 11
287.0
 21
229.82219510669691
 31
0.0
  0
LINE
  5
7F58
  8
0
 10
288.0
 20
238.82219510669671
 30
0.0
 11
285.0
 21
238.82219510669671
 31
0.0
  0
LINE
  5
7F59
  8
0
 10
288.0
 20
241.82219510669691
 30
0.0
 11
287.0
 21
241.82219510669691
 31
0.0
  0
LINE
  5
7F5A
  8
0
 10
288.0
 20
242.82219510669691
 30
0.0
 11
287.0
 21
242.82219510669691
 31
0.0
  0
LINE
  5
7F5B
  8
0
 10
288.0
 20
244.82219510669691
 30
0.0
 11
287.0
 21
244.82219510669691
 31
0.0
  0
LINE
  5
7F5C
  8
0
 10
288.0
 20
243.82219510669691
 30
0.0
 11
286.0
 21
243.82219510669691
 31
0.0
  0
LINE
  5
7F5D
  8
0
 10
288.0
 20
239.82219510669691
 30
0.0
 11
287.0
 21
239.82219510669691
 31
0.0
  0
LINE
  5
7F5E
  8
0
 10
288.0
 20
240.82219510669671
 30
0.0
 11
287.0
 21
240.82219510669671
 31
0.0
  0
LINE
  5
7F5F
  8
0
 10
288.0
 20
237.82219510669691
 30
0.0
 11
287.0
 21
237.82219510669691
 31
0.0
  0
LINE
  5
7F60
  8
0
 10
288.0
 20
236.82219510669671
 30
0.0
 11
287.0
 21
236.82219510669671
 31
0.0
  0
LINE
  5
7F61
  8
0
 10
288.0
 20
248.8221951066966
 30
0.0
 11
285.0
 21
248.8221951066966
 31
0.0
  0
LINE
  5
7F62
  8
0
 10
288.0
 20
249.8221951066966
 30
0.0
 11
287.0
 21
249.8221951066966
 31
0.0
  0
LINE
  5
7F63
  8
0
 10
288.0
 20
250.8221951066966
 30
0.0
 11
287.0
 21
250.8221951066966
 31
0.0
  0
LINE
  5
7F64
  8
0
 10
288.0
 20
251.8221951066966
 30
0.0
 11
287.0
 21
251.8221951066966
 31
0.0
  0
LINE
  5
7F65
  8
0
 10
288.0
 20
252.82219510669691
 30
0.0
 11
287.0
 21
252.82219510669691
 31
0.0
  0
LINE
  5
7F66
  8
0
 10
288.0
 20
247.8221951066966
 30
0.0
 11
287.0
 21
247.8221951066966
 31
0.0
  0
LINE
  5
7F67
  8
0
 10
288.0
 20
246.8221951066966
 30
0.0
 11
287.0
 21
246.8221951066966
 31
0.0
  0
LINE
  5
7F68
  8
0
 10
288.0
 20
245.82219510669671
 30
0.0
 11
287.0
 21
245.82219510669671
 31
0.0
  0
LINE
  5
7F69
  8
0
 10
288.0
 20
258.82219510669688
 30
0.0
 11
285.0
 21
258.82219510669688
 31
0.0
  0
LINE
  5
7F6A
  8
0
 10
288.0
 20
259.82219510669688
 30
0.0
 11
287.0
 21
259.82219510669688
 31
0.0
  0
LINE
  5
7F6B
  8
0
 10
288.0
 20
260.82219510669688
 30
0.0
 11
287.0
 21
260.82219510669688
 31
0.0
  0
LINE
  5
7F6C
  8
0
 10
288.0
 20
261.82219510669688
 30
0.0
 11
287.0
 21
261.82219510669688
 31
0.0
  0
LINE
  5
7F6D
  8
0
 10
288.0
 20
253.8221951066966
 30
0.0
 11
286.0
 21
253.8221951066966
 31
0.0
  0
LINE
  5
7F6E
  8
0
 10
288.0
 20
257.82219510669688
 30
0.0
 11
287.0
 21
257.82219510669688
 31
0.0
  0
LINE
  5
7F6F
  8
0
 10
288.0
 20
256.82219510669688
 30
0.0
 11
287.0
 21
256.82219510669688
 31
0.0
  0
LINE
  5
7F70
  8
0
 10
288.0
 20
255.8221951066966
 30
0.0
 11
287.0
 21
255.8221951066966
 31
0.0
  0
LINE
  5
7F71
  8
0
 10
288.0
 20
254.82219510669691
 30
0.0
 11
287.0
 21
254.82219510669691
 31
0.0
  0
LINE
  5
7F72
  8
0
 10
288.0
 20
268.82219510669688
 30
0.0
 11
285.0
 21
268.82219510669688
 31
0.0
  0
LINE
  5
7F73
  8
0
 10
288.0
 20
267.82219510669688
 30
0.0
 11
287.0
 21
267.82219510669688
 31
0.0
  0
LINE
  5
7F74
  8
0
 10
288.0
 20
269.82219510669688
 30
0.0
 11
287.0
 21
269.82219510669688
 31
0.0
  0
LINE
  5
7F75
  8
0
 10
288.0
 20
270.82219510669688
 30
0.0
 11
287.0
 21
270.82219510669688
 31
0.0
  0
LINE
  5
7F76
  8
0
 10
288.0
 20
262.82219510669688
 30
0.0
 11
287.0
 21
262.82219510669688
 31
0.0
  0
LINE
  5
7F77
  8
0
 10
288.0
 20
266.82219510669688
 30
0.0
 11
287.0
 21
266.82219510669688
 31
0.0
  0
LINE
  5
7F78
  8
0
 10
288.0
 20
265.82219510669688
 30
0.0
 11
287.0
 21
265.82219510669688
 31
0.0
  0
LINE
  5
7F79
  8
0
 10
288.0
 20
264.82219510669688
 30
0.0
 11
287.0
 21
264.82219510669688
 31
0.0
  0
LINE
  5
7F7A
  8
0
 10
288.0
 20
263.82219510669688
 30
0.0
 11
286.0
 21
263.82219510669688
 31
0.0
  0
LINE
  5
7F7B
  8
0
 10
288.0
 20
278.82219510669688
 30
0.0
 11
285.0
 21
278.82219510669688
 31
0.0
  0
LINE
  5
7F7C
  8
0
 10
288.0
 20
279.82219510669688
 30
0.0
 11
287.0
 21
279.82219510669688
 31
0.0
  0
LINE
  5
7F7D
  8
0
 10
288.0
 20
277.82219510669688
 30
0.0
 11
287.0
 21
277.82219510669688
 31
0.0
  0
LINE
  5
7F7E
  8
0
 10
288.0
 20
276.82219510669688
 30
0.0
 11
287.0
 21
276.82219510669688
 31
0.0
  0
LINE
  5
7F7F
  8
0
 10
288.0
 20
275.82219510669688
 30
0.0
 11
287.0
 21
275.82219510669688
 31
0.0
  0
LINE
  5
7F80
  8
0
 10
288.0
 20
274.82219510669688
 30
0.0
 11
287.0
 21
274.82219510669688
 31
0.0
  0
LINE
  5
7F81
  8
0
 10
288.0
 20
271.82219510669688
 30
0.0
 11
287.0
 21
271.82219510669688
 31
0.0
  0
LINE
  5
7F82
  8
0
 10
288.0
 20
272.82219510669688
 30
0.0
 11
287.0
 21
272.82219510669688
 31
0.0
  0
LINE
  5
7F83
  8
0
 10
288.0
 20
273.82219510669688
 30
0.0
 11
286.0
 21
273.82219510669688
 31
0.0
  0
LINE
  5
7F84
  8
0
 10
288.0
 20
287.82219510669682
 30
0.0
 11
287.0
 21
287.82219510669682
 31
0.0
  0
LINE
  5
7F85
  8
0
 10
288.0
 20
285.82219510669688
 30
0.0
 11
287.0
 21
285.82219510669688
 31
0.0
  0
LINE
  5
7F86
  8
0
 10
288.0
 20
284.82219510669682
 30
0.0
 11
287.0
 21
284.82219510669682
 31
0.0
  0
LINE
  5
7F87
  8
0
 10
288.0
 20
286.82219510669688
 30
0.0
 11
287.0
 21
286.82219510669688
 31
0.0
  0
LINE
  5
7F88
  8
0
 10
288.0
 20
280.82219510669688
 30
0.0
 11
287.0
 21
280.82219510669688
 31
0.0
  0
LINE
  5
7F89
  8
0
 10
288.0
 20
281.82219510669682
 30
0.0
 11
287.0
 21
281.82219510669682
 31
0.0
  0
LINE
  5
7F8A
  8
0
 10
288.0
 20
282.82219510669682
 30
0.0
 11
287.0
 21
282.82219510669682
 31
0.0
  0
LINE
  5
7F8B
  8
0
 10
288.0
 20
283.82219510669688
 30
0.0
 11
286.0
 21
283.82219510669688
 31
0.0
  0
LINE
  5
7F8C
  8
0
 10
288.0
 20
288.82219510669682
 30
0.0
 11
285.0
 21
288.82219510669682
 31
0.0
  0
LINE
  5
7F8D
  8
0
 10
288.0
 20
295.82219510669682
 30
0.0
 11
287.0
 21
295.82219510669682
 31
0.0
  0
LINE
  5
7F8E
  8
0
 10
288.0
 20
296.82219510669682
 30
0.0
 11
287.0
 21
296.82219510669682
 31
0.0
  0
LINE
  5
7F8F
  8
0
 10
288.0
 20
294.82219510669688
 30
0.0
 11
287.0
 21
294.82219510669688
 31
0.0
  0
LINE
  5
7F90
  8
0
 10
288.0
 20
293.82219510669682
 30
0.0
 11
286.0
 21
293.82219510669682
 31
0.0
  0
LINE
  5
7F91
  8
0
 10
288.0
 20
289.82219510669682
 30
0.0
 11
287.0
 21
289.82219510669682
 31
0.0
  0
LINE
  5
7F92
  8
0
 10
288.0
 20
290.82219510669682
 30
0.0
 11
287.0
 21
290.82219510669682
 31
0.0
  0
LINE
  5
7F93
  8
0
 10
288.0
 20
291.82219510669682
 30
0.0
 11
287.0
 21
291.82219510669682
 31
0.0
  0
LINE
  5
7F94
  8
0
 10
288.0
 20
292.82219510669688
 30
0.0
 11
287.0
 21
292.82219510669688
 31
0.0
  0
LINE
  5
7F95
  8
0
 10
288.0
 20
298.82219510669682
 30
0.0
 11
285.0
 21
298.82219510669682
 31
0.0
  0
LINE
  5
7F96
  8
0
 10
288.0
 20
304.82219510669688
 30
0.0
 11
287.0
 21
304.82219510669688
 31
0.0
  0
LINE
  5
7F97
  8
0
 10
288.0
 20
305.82219510669682
 30
0.0
 11
287.0
 21
305.82219510669682
 31
0.0
  0
LINE
  5
7F98
  8
0
 10
288.0
 20
303.82219510669682
 30
0.0
 11
286.0
 21
303.82219510669682
 31
0.0
  0
LINE
  5
7F99
  8
0
 10
288.0
 20
302.82219510669688
 30
0.0
 11
287.0
 21
302.82219510669688
 31
0.0
  0
LINE
  5
7F9A
  8
0
 10
288.0
 20
297.82219510669682
 30
0.0
 11
287.0
 21
297.82219510669682
 31
0.0
  0
LINE
  5
7F9B
  8
0
 10
288.0
 20
301.82219510669682
 30
0.0
 11
287.0
 21
301.82219510669682
 31
0.0
  0
LINE
  5
7F9C
  8
0
 10
288.0
 20
300.82219510669682
 30
0.0
 11
287.0
 21
300.82219510669682
 31
0.0
  0
LINE
  5
7F9D
  8
0
 10
288.0
 20
299.82219510669682
 30
0.0
 11
287.0
 21
299.82219510669682
 31
0.0
  0
LINE
  5
7F9E
  8
0
 10
288.0
 20
308.82219510669688
 30
0.0
 11
285.0
 21
308.82219510669688
 31
0.0
  0
LINE
  5
7F9F
  8
0
 10
288.0
 20
306.82219510669688
 30
0.0
 11
287.0
 21
306.82219510669688
 31
0.0
  0
LINE
  5
7FA0
  8
0
 10
288.0
 20
307.82219510669682
 30
0.0
 11
287.0
 21
307.82219510669682
 31
0.0
  0
LINE
  5
7FA1
  8
0
 10
288.0
 20
312.82219510669688
 30
0.0
 11
287.0
 21
312.82219510669688
 31
0.0
  0
LINE
  5
7FA2
  8
0
 10
288.0
 20
311.82219510669682
 30
0.0
 11
287.0
 21
311.82219510669682
 31
0.0
  0
LINE
  5
7FA3
  8
0
 10
288.0
 20
310.82219510669688
 30
0.0
 11
287.0
 21
310.82219510669688
 31
0.0
  0
LINE
  5
7FA4
  8
0
 10
288.0
 20
313.82219510669682
 30
0.0
 11
286.0
 21
313.82219510669682
 31
0.0
  0
LINE
  5
7FA5
  8
0
 10
288.0
 20
309.82219510669682
 30
0.0
 11
287.0
 21
309.82219510669682
 31
0.0
  0
LINE
  5
7FA6
  8
0
 10
288.0
 20
318.82219510669682
 30
0.0
 11
285.0
 21
318.82219510669682
 31
0.0
  0
LINE
  5
7FA7
  8
0
 10
288.0
 20
320.82219510669682
 30
0.0
 11
287.0
 21
320.82219510669682
 31
0.0
  0
LINE
  5
7FA8
  8
0
 10
288.0
 20
319.82219510669688
 30
0.0
 11
287.0
 21
319.82219510669688
 31
0.0
  0
LINE
  5
7FA9
  8
0
 10
288.0
 20
322.82219510669682
 30
0.0
 11
287.0
 21
322.82219510669682
 31
0.0
  0
LINE
  5
7FAA
  8
0
 10
288.0
 20
321.82219510669688
 30
0.0
 11
287.0
 21
321.82219510669688
 31
0.0
  0
LINE
  5
7FAB
  8
0
 10
288.0
 20
314.82219510669682
 30
0.0
 11
287.0
 21
314.82219510669682
 31
0.0
  0
LINE
  5
7FAC
  8
0
 10
288.0
 20
315.82219510669682
 30
0.0
 11
287.0
 21
315.82219510669682
 31
0.0
  0
LINE
  5
7FAD
  8
0
 10
288.0
 20
316.82219510669682
 30
0.0
 11
287.0
 21
316.82219510669682
 31
0.0
  0
LINE
  5
7FAE
  8
0
 10
288.0
 20
317.82219510669688
 30
0.0
 11
287.0
 21
317.82219510669688
 31
0.0
  0
LINE
  5
7FAF
  8
0
 10
288.0
 20
328.82219510669682
 30
0.0
 11
285.0
 21
328.82219510669682
 31
0.0
  0
LINE
  5
7FB0
  8
0
 10
288.0
 20
329.82219510669688
 30
0.0
 11
287.0
 21
329.82219510669688
 31
0.0
  0
LINE
  5
7FB1
  8
0
 10
288.0
 20
331.82219510669688
 30
0.0
 11
287.0
 21
331.82219510669688
 31
0.0
  0
LINE
  5
7FB2
  8
0
 10
288.0
 20
330.82219510669682
 30
0.0
 11
287.0
 21
330.82219510669682
 31
0.0
  0
LINE
  5
7FB3
  8
0
 10
288.0
 20
323.82219510669682
 30
0.0
 11
286.0
 21
323.82219510669682
 31
0.0
  0
LINE
  5
7FB4
  8
0
 10
288.0
 20
324.82219510669682
 30
0.0
 11
287.0
 21
324.82219510669682
 31
0.0
  0
LINE
  5
7FB5
  8
0
 10
288.0
 20
325.82219510669682
 30
0.0
 11
287.0
 21
325.82219510669682
 31
0.0
  0
LINE
  5
7FB6
  8
0
 10
288.0
 20
326.82219510669682
 30
0.0
 11
287.0
 21
326.82219510669682
 31
0.0
  0
LINE
  5
7FB7
  8
0
 10
288.0
 20
327.82219510669688
 30
0.0
 11
287.0
 21
327.82219510669688
 31
0.0
  0
LINE
  5
7FB8
  8
0
 10
288.0
 20
338.82219510669682
 30
0.0
 11
285.0
 21
338.82219510669682
 31
0.0
  0
LINE
  5
7FB9
  8
0
 10
288.0
 20
333.82219510669688
 30
0.0
 11
286.0
 21
333.82219510669688
 31
0.0
  0
LINE
  5
7FBA
  8
0
 10
288.0
 20
332.82219510669682
 30
0.0
 11
287.0
 21
332.82219510669682
 31
0.0
  0
LINE
  5
7FBB
  8
0
 10
288.0
 20
334.82219510669682
 30
0.0
 11
287.0
 21
334.82219510669682
 31
0.0
  0
LINE
  5
7FBC
  8
0
 10
288.0
 20
335.82219510669688
 30
0.0
 11
287.0
 21
335.82219510669688
 31
0.0
  0
LINE
  5
7FBD
  8
0
 10
288.0
 20
336.82219510669682
 30
0.0
 11
287.0
 21
336.82219510669682
 31
0.0
  0
LINE
  5
7FBE
  8
0
 10
288.0
 20
337.82219510669688
 30
0.0
 11
287.0
 21
337.82219510669688
 31
0.0
  0
LINE
  5
7FBF
  8
0
 10
288.0
 20
340.82219510669682
 30
0.0
 11
287.0
 21
340.82219510669682
 31
0.0
  0
LINE
  5
7FC0
  8
0
 10
288.0
 20
339.82219510669682
 30
0.0
 11
287.0
 21
339.82219510669682
 31
0.0
  0
LINE
  5
7FC1
  8
0
 10
288.0
 20
348.82219510669671
 30
0.0
 11
285.0
 21
348.82219510669671
 31
0.0
  0
LINE
  5
7FC2
  8
0
 10
288.0
 20
345.82219510669671
 30
0.0
 11
287.0
 21
345.82219510669671
 31
0.0
  0
LINE
  5
7FC3
  8
0
 10
288.0
 20
346.82219510669688
 30
0.0
 11
287.0
 21
346.82219510669688
 31
0.0
  0
LINE
  5
7FC4
  8
0
 10
288.0
 20
347.82219510669671
 30
0.0
 11
287.0
 21
347.82219510669671
 31
0.0
  0
LINE
  5
7FC5
  8
0
 10
288.0
 20
343.82219510669671
 30
0.0
 11
286.0
 21
343.82219510669671
 31
0.0
  0
LINE
  5
7FC6
  8
0
 10
288.0
 20
344.82219510669688
 30
0.0
 11
287.0
 21
344.82219510669688
 31
0.0
  0
LINE
  5
7FC7
  8
0
 10
288.0
 20
342.82219510669688
 30
0.0
 11
287.0
 21
342.82219510669688
 31
0.0
  0
LINE
  5
7FC8
  8
0
 10
288.0
 20
341.82219510669682
 30
0.0
 11
287.0
 21
341.82219510669682
 31
0.0
  0
LINE
  5
7FC9
  8
0
 10
288.0
 20
354.82219510669671
 30
0.0
 11
287.0
 21
354.82219510669671
 31
0.0
  0
LINE
  5
7FCA
  8
0
 10
288.0
 20
355.82219510669671
 30
0.0
 11
287.0
 21
355.82219510669671
 31
0.0
  0
LINE
  5
7FCB
  8
0
 10
288.0
 20
356.82219510669671
 30
0.0
 11
287.0
 21
356.82219510669671
 31
0.0
  0
LINE
  5
7FCC
  8
0
 10
288.0
 20
357.82219510669671
 30
0.0
 11
287.0
 21
357.82219510669671
 31
0.0
  0
LINE
  5
7FCD
  8
0
 10
288.0
 20
353.82219510669671
 30
0.0
 11
286.0
 21
353.82219510669671
 31
0.0
  0
LINE
  5
7FCE
  8
0
 10
288.0
 20
352.82219510669671
 30
0.0
 11
287.0
 21
352.82219510669671
 31
0.0
  0
LINE
  5
7FCF
  8
0
 10
288.0
 20
351.82219510669671
 30
0.0
 11
287.0
 21
351.82219510669671
 31
0.0
  0
LINE
  5
7FD0
  8
0
 10
288.0
 20
350.82219510669671
 30
0.0
 11
287.0
 21
350.82219510669671
 31
0.0
  0
LINE
  5
7FD1
  8
0
 10
288.0
 20
349.82219510669671
 30
0.0
 11
287.0
 21
349.82219510669671
 31
0.0
  0
LINE
  5
7FD2
  8
0
 10
288.0
 20
358.82219510669671
 30
0.0
 11
285.0
 21
358.82219510669671
 31
0.0
  0
LINE
  5
7FD3
  8
0
 10
288.0
 20
363.82219510669671
 30
0.0
 11
286.0
 21
363.82219510669671
 31
0.0
  0
LINE
  5
7FD4
  8
0
 10
288.0
 20
364.82219510669671
 30
0.0
 11
287.0
 21
364.82219510669671
 31
0.0
  0
LINE
  5
7FD5
  8
0
 10
288.0
 20
365.82219510669671
 30
0.0
 11
287.0
 21
365.82219510669671
 31
0.0
  0
LINE
  5
7FD6
  8
0
 10
288.0
 20
366.82219510669671
 30
0.0
 11
287.0
 21
366.82219510669671
 31
0.0
  0
LINE
  5
7FD7
  8
0
 10
288.0
 20
361.82219510669671
 30
0.0
 11
287.0
 21
361.82219510669671
 31
0.0
  0
LINE
  5
7FD8
  8
0
 10
288.0
 20
360.82219510669671
 30
0.0
 11
287.0
 21
360.82219510669671
 31
0.0
  0
LINE
  5
7FD9
  8
0
 10
288.0
 20
359.82219510669671
 30
0.0
 11
287.0
 21
359.82219510669671
 31
0.0
  0
LINE
  5
7FDA
  8
0
 10
288.0
 20
362.82219510669671
 30
0.0
 11
287.0
 21
362.82219510669671
 31
0.0
  0
LINE
  5
7FDB
  8
0
 10
288.0
 20
368.82219510669671
 30
0.0
 11
285.0
 21
368.82219510669671
 31
0.0
  0
LINE
  5
7FDC
  8
0
 10
288.0
 20
373.82219510669671
 30
0.0
 11
286.0
 21
373.82219510669671
 31
0.0
  0
LINE
  5
7FDD
  8
0
 10
288.0
 20
372.82219510669671
 30
0.0
 11
287.0
 21
372.82219510669671
 31
0.0
  0
LINE
  5
7FDE
  8
0
 10
288.0
 20
371.82219510669671
 30
0.0
 11
287.0
 21
371.82219510669671
 31
0.0
  0
LINE
  5
7FDF
  8
0
 10
288.0
 20
374.82219510669671
 30
0.0
 11
287.0
 21
374.82219510669671
 31
0.0
  0
LINE
  5
7FE0
  8
0
 10
288.0
 20
370.82219510669671
 30
0.0
 11
287.0
 21
370.82219510669671
 31
0.0
  0
LINE
  5
7FE1
  8
0
 10
288.0
 20
369.82219510669671
 30
0.0
 11
287.0
 21
369.82219510669671
 31
0.0
  0
LINE
  5
7FE2
  8
0
 10
288.0
 20
367.82219510669671
 30
0.0
 11
287.0
 21
367.82219510669671
 31
0.0
  0
LINE
  5
7FE3
  8
0
 10
288.0
 20
378.82219510669671
 30
0.0
 11
285.0
 21
378.82219510669671
 31
0.0
  0
LINE
  5
7FE4
  8
0
 10
288.0
 20
383.82219510669671
 30
0.0
 11
286.0
 21
383.82219510669671
 31
0.0
  0
LINE
  5
7FE5
  8
0
 10
288.0
 20
382.82219510669682
 30
0.0
 11
287.0
 21
382.82219510669682
 31
0.0
  0
LINE
  5
7FE6
  8
0
 10
288.0
 20
381.82219510669671
 30
0.0
 11
287.0
 21
381.82219510669671
 31
0.0
  0
LINE
  5
7FE7
  8
0
 10
288.0
 20
380.82219510669671
 30
0.0
 11
287.0
 21
380.82219510669671
 31
0.0
  0
LINE
  5
7FE8
  8
0
 10
288.0
 20
375.82219510669671
 30
0.0
 11
287.0
 21
375.82219510669671
 31
0.0
  0
LINE
  5
7FE9
  8
0
 10
288.0
 20
376.82219510669671
 30
0.0
 11
287.0
 21
376.82219510669671
 31
0.0
  0
LINE
  5
7FEA
  8
0
 10
288.0
 20
377.82219510669671
 30
0.0
 11
287.0
 21
377.82219510669671
 31
0.0
  0
LINE
  5
7FEB
  8
0
 10
288.0
 20
379.82219510669671
 30
0.0
 11
287.0
 21
379.82219510669671
 31
0.0
  0
LINE
  5
7FEC
  8
0
 10
288.0
 20
388.82219510669671
 30
0.0
 11
285.0
 21
388.82219510669671
 31
0.0
  0
LINE
  5
7FED
  8
0
 10
288.0
 20
392.82219510669671
 30
0.0
 11
287.0
 21
392.82219510669671
 31
0.0
  0
LINE
  5
7FEE
  8
0
 10
288.0
 20
391.82219510669671
 30
0.0
 11
287.0
 21
391.82219510669671
 31
0.0
  0
LINE
  5
7FEF
  8
0
 10
288.0
 20
390.82219510669671
 30
0.0
 11
287.0
 21
390.82219510669671
 31
0.0
  0
LINE
  5
7FF0
  8
0
 10
288.0
 20
389.82219510669671
 30
0.0
 11
287.0
 21
389.82219510669671
 31
0.0
  0
LINE
  5
7FF1
  8
0
 10
288.0
 20
386.82219510669671
 30
0.0
 11
287.0
 21
386.82219510669671
 31
0.0
  0
LINE
  5
7FF2
  8
0
 10
288.0
 20
384.82219510669671
 30
0.0
 11
287.0
 21
384.82219510669671
 31
0.0
  0
LINE
  5
7FF3
  8
0
 10
288.0
 20
385.82219510669671
 30
0.0
 11
287.0
 21
385.82219510669671
 31
0.0
  0
LINE
  5
7FF4
  8
0
 10
288.0
 20
387.82219510669671
 30
0.0
 11
287.0
 21
387.82219510669671
 31
0.0
  0
LINE
  5
7FF5
  8
0
 10
288.0
 20
398.82219510669671
 30
0.0
 11
285.0
 21
398.82219510669671
 31
0.0
  0
LINE
  5
7FF6
  8
0
 10
288.0
 20
399.8221951066966
 30
0.0
 11
287.0
 21
399.8221951066966
 31
0.0
  0
LINE
  5
7FF7
  8
0
 10
288.0
 20
400.82219510669682
 30
0.0
 11
287.0
 21
400.82219510669682
 31
0.0
  0
LINE
  5
7FF8
  8
0
 10
288.0
 20
401.82219510669671
 30
0.0
 11
287.0
 21
401.82219510669671
 31
0.0
  0
LINE
  5
7FF9
  8
0
 10
288.0
 20
397.82219510669671
 30
0.0
 11
287.0
 21
397.82219510669671
 31
0.0
  0
LINE
  5
7FFA
  8
0
 10
288.0
 20
393.82219510669671
 30
0.0
 11
286.0
 21
393.82219510669671
 31
0.0
  0
LINE
  5
7FFB
  8
0
 10
288.0
 20
394.82219510669671
 30
0.0
 11
287.0
 21
394.82219510669671
 31
0.0
  0
LINE
  5
7FFC
  8
0
 10
288.0
 20
396.82219510669671
 30
0.0
 11
287.0
 21
396.82219510669671
 31
0.0
  0
LINE
  5
7FFD
  8
0
 10
288.0
 20
395.82219510669671
 30
0.0
 11
287.0
 21
395.82219510669671
 31
0.0
  0
LINE
  5
7FFE
  8
0
 10
288.0
 20
408.82219510669682
 30
0.0
 11
285.0
 21
408.82219510669682
 31
0.0
  0
LINE
  5
7FFF
  8
0
 10
288.0
 20
407.82219510669671
 30
0.0
 11
287.0
 21
407.82219510669671
 31
0.0
  0
LINE
  5
8000
  8
0
 10
288.0
 20
406.8221951066966
 30
0.0
 11
287.0
 21
406.8221951066966
 31
0.0
  0
LINE
  5
8001
  8
0
 10
288.0
 20
402.8221951066966
 30
0.0
 11
287.0
 21
402.8221951066966
 31
0.0
  0
LINE
  5
8002
  8
0
 10
288.0
 20
403.82219510669671
 30
0.0
 11
286.0
 21
403.82219510669671
 31
0.0
  0
LINE
  5
8003
  8
0
 10
288.0
 20
405.82219510669671
 30
0.0
 11
287.0
 21
405.82219510669671
 31
0.0
  0
LINE
  5
8004
  8
0
 10
288.0
 20
404.82219510669682
 30
0.0
 11
287.0
 21
404.82219510669682
 31
0.0
  0
LINE
  5
8005
  8
0
 10
288.0
 20
409.82219510669671
 30
0.0
 11
287.0
 21
409.82219510669671
 31
0.0
  0
LINE
  5
8006
  8
0
 10
288.0
 20
418.82219510669671
 30
0.0
 11
285.0
 21
418.82219510669671
 31
0.0
  0
LINE
  5
8007
  8
0
 10
288.0
 20
417.82219510669682
 30
0.0
 11
287.0
 21
417.82219510669682
 31
0.0
  0
LINE
  5
8008
  8
0
 10
288.0
 20
416.82219510669671
 30
0.0
 11
287.0
 21
416.82219510669671
 31
0.0
  0
LINE
  5
8009
  8
0
 10
288.0
 20
415.82219510669671
 30
0.0
 11
287.0
 21
415.82219510669671
 31
0.0
  0
LINE
  5
800A
  8
0
 10
288.0
 20
414.8221951066966
 30
0.0
 11
287.0
 21
414.8221951066966
 31
0.0
  0
LINE
  5
800B
  8
0
 10
288.0
 20
413.82219510669671
 30
0.0
 11
286.0
 21
413.82219510669671
 31
0.0
  0
LINE
  5
800C
  8
0
 10
288.0
 20
410.8221951066966
 30
0.0
 11
287.0
 21
410.8221951066966
 31
0.0
  0
LINE
  5
800D
  8
0
 10
288.0
 20
411.82219510669671
 30
0.0
 11
287.0
 21
411.82219510669671
 31
0.0
  0
LINE
  5
800E
  8
0
 10
288.0
 20
412.82219510669671
 30
0.0
 11
287.0
 21
412.82219510669671
 31
0.0
  0
LINE
  5
800F
  8
0
 10
288.0
 20
427.8221951066966
 30
0.0
 11
287.0
 21
427.8221951066966
 31
0.0
  0
LINE
  5
8010
  8
0
 10
288.0
 20
426.82219510669671
 30
0.0
 11
287.0
 21
426.82219510669671
 31
0.0
  0
LINE
  5
8011
  8
0
 10
288.0
 20
425.82219510669682
 30
0.0
 11
287.0
 21
425.82219510669682
 31
0.0
  0
LINE
  5
8012
  8
0
 10
288.0
 20
424.82219510669671
 30
0.0
 11
287.0
 21
424.82219510669671
 31
0.0
  0
LINE
  5
8013
  8
0
 10
288.0
 20
421.82219510669682
 30
0.0
 11
287.0
 21
421.82219510669682
 31
0.0
  0
LINE
  5
8014
  8
0
 10
288.0
 20
422.82219510669671
 30
0.0
 11
287.0
 21
422.82219510669671
 31
0.0
  0
LINE
  5
8015
  8
0
 10
288.0
 20
423.8221951066966
 30
0.0
 11
286.0
 21
423.8221951066966
 31
0.0
  0
LINE
  5
8016
  8
0
 10
288.0
 20
419.82219510669671
 30
0.0
 11
287.0
 21
419.82219510669671
 31
0.0
  0
LINE
  5
8017
  8
0
 10
288.0
 20
420.82219510669671
 30
0.0
 11
287.0
 21
420.82219510669671
 31
0.0
  0
LINE
  5
8018
  8
0
 10
288.0
 20
428.82219510669671
 30
0.0
 11
285.0
 21
428.82219510669671
 31
0.0
  0
LINE
  5
8019
  8
0
 10
288.0
 20
430.82219510669671
 30
0.0
 11
287.0
 21
430.82219510669671
 31
0.0
  0
LINE
  5
801A
  8
0
 10
288.0
 20
431.8221951066966
 30
0.0
 11
287.0
 21
431.8221951066966
 31
0.0
  0
LINE
  5
801B
  8
0
 10
288.0
 20
435.8221951066966
 30
0.0
 11
287.0
 21
435.8221951066966
 31
0.0
  0
LINE
  5
801C
  8
0
 10
288.0
 20
434.82219510669671
 30
0.0
 11
287.0
 21
434.82219510669671
 31
0.0
  0
LINE
  5
801D
  8
0
 10
288.0
 20
432.82219510669671
 30
0.0
 11
287.0
 21
432.82219510669671
 31
0.0
  0
LINE
  5
801E
  8
0
 10
288.0
 20
433.82219510669682
 30
0.0
 11
286.0
 21
433.82219510669682
 31
0.0
  0
LINE
  5
801F
  8
0
 10
288.0
 20
429.82219510669682
 30
0.0
 11
287.0
 21
429.82219510669682
 31
0.0
  0
LINE
  5
8020
  8
0
 10
288.0
 20
438.82219510669671
 30
0.0
 11
285.0
 21
438.82219510669671
 31
0.0
  0
LINE
  5
8021
  8
0
 10
288.0
 20
439.8221951066966
 30
0.0
 11
287.0
 21
439.8221951066966
 31
0.0
  0
LINE
  5
8022
  8
0
 10
288.0
 20
440.82219510669671
 30
0.0
 11
287.0
 21
440.82219510669671
 31
0.0
  0
LINE
  5
8023
  8
0
 10
288.0
 20
441.82219510669671
 30
0.0
 11
287.0
 21
441.82219510669671
 31
0.0
  0
LINE
  5
8024
  8
0
 10
288.0
 20
442.82219510669682
 30
0.0
 11
287.0
 21
442.82219510669682
 31
0.0
  0
LINE
  5
8025
  8
0
 10
288.0
 20
444.82219510669671
 30
0.0
 11
287.0
 21
444.82219510669671
 31
0.0
  0
LINE
  5
8026
  8
0
 10
288.0
 20
443.82219510669671
 30
0.0
 11
286.0
 21
443.82219510669671
 31
0.0
  0
LINE
  5
8027
  8
0
 10
288.0
 20
437.82219510669682
 30
0.0
 11
287.0
 21
437.82219510669682
 31
0.0
  0
LINE
  5
8028
  8
0
 10
288.0
 20
436.82219510669671
 30
0.0
 11
287.0
 21
436.82219510669671
 31
0.0
  0
LINE
  5
8029
  8
0
 10
288.0
 20
448.82219510669671
 30
0.0
 11
285.0
 21
448.82219510669671
 31
0.0
  0
LINE
  5
802A
  8
0
 10
288.0
 20
447.82219510669671
 30
0.0
 11
287.0
 21
447.82219510669671
 31
0.0
  0
LINE
  5
802B
  8
0
 10
288.0
 20
446.82219510669682
 30
0.0
 11
287.0
 21
446.82219510669682
 31
0.0
  0
LINE
  5
802C
  8
0
 10
288.0
 20
449.82219510669671
 30
0.0
 11
287.0
 21
449.82219510669671
 31
0.0
  0
LINE
  5
802D
  8
0
 10
288.0
 20
450.82219510669682
 30
0.0
 11
287.0
 21
450.82219510669682
 31
0.0
  0
LINE
  5
802E
  8
0
 10
288.0
 20
451.82219510669671
 30
0.0
 11
287.0
 21
451.82219510669671
 31
0.0
  0
LINE
  5
802F
  8
0
 10
288.0
 20
452.8221951066966
 30
0.0
 11
287.0
 21
452.8221951066966
 31
0.0
  0
LINE
  5
8030
  8
0
 10
288.0
 20
453.82219510669671
 30
0.0
 11
286.0
 21
453.82219510669671
 31
0.0
  0
LINE
  5
8031
  8
0
 10
288.0
 20
445.82219510669671
 30
0.0
 11
287.0
 21
445.82219510669671
 31
0.0
  0
LINE
  5
8032
  8
0
 10
288.0
 20
458.82219510669682
 30
0.0
 11
285.0
 21
458.82219510669682
 31
0.0
  0
LINE
  5
8033
  8
0
 10
288.0
 20
462.82219510669682
 30
0.0
 11
287.0
 21
462.82219510669682
 31
0.0
  0
LINE
  5
8034
  8
0
 10
288.0
 20
457.82219510669671
 30
0.0
 11
287.0
 21
457.82219510669671
 31
0.0
  0
LINE
  5
8035
  8
0
 10
288.0
 20
456.8221951066966
 30
0.0
 11
287.0
 21
456.8221951066966
 31
0.0
  0
LINE
  5
8036
  8
0
 10
288.0
 20
455.82219510669671
 30
0.0
 11
287.0
 21
455.82219510669671
 31
0.0
  0
LINE
  5
8037
  8
0
 10
288.0
 20
454.82219510669682
 30
0.0
 11
287.0
 21
454.82219510669682
 31
0.0
  0
LINE
  5
8038
  8
0
 10
288.0
 20
459.82219510669671
 30
0.0
 11
287.0
 21
459.82219510669671
 31
0.0
  0
LINE
  5
8039
  8
0
 10
288.0
 20
460.8221951066966
 30
0.0
 11
287.0
 21
460.8221951066966
 31
0.0
  0
LINE
  5
803A
  8
0
 10
288.0
 20
461.82219510669671
 30
0.0
 11
287.0
 21
461.82219510669671
 31
0.0
  0
LINE
  5
803B
  8
0
 10
288.0
 20
468.82219510669671
 30
0.0
 11
285.0
 21
468.82219510669671
 31
0.0
  0
LINE
  5
803C
  8
0
 10
288.0
 20
467.82219510669682
 30
0.0
 11
287.0
 21
467.82219510669682
 31
0.0
  0
LINE
  5
803D
  8
0
 10
288.0
 20
466.82219510669671
 30
0.0
 11
287.0
 21
466.82219510669671
 31
0.0
  0
LINE
  5
803E
  8
0
 10
288.0
 20
465.82219510669671
 30
0.0
 11
287.0
 21
465.82219510669671
 31
0.0
  0
LINE
  5
803F
  8
0
 10
288.0
 20
464.8221951066966
 30
0.0
 11
287.0
 21
464.8221951066966
 31
0.0
  0
LINE
  5
8040
  8
0
 10
288.0
 20
469.82219510669671
 30
0.0
 11
287.0
 21
469.82219510669671
 31
0.0
  0
LINE
  5
8041
  8
0
 10
288.0
 20
470.82219510669671
 30
0.0
 11
287.0
 21
470.82219510669671
 31
0.0
  0
LINE
  5
8042
  8
0
 10
288.0
 20
463.82219510669671
 30
0.0
 11
286.0
 21
463.82219510669671
 31
0.0
  0
LINE
  5
8043
  8
0
 10
288.0
 20
478.82219510669671
 30
0.0
 11
285.0
 21
478.82219510669671
 31
0.0
  0
LINE
  5
8044
  8
0
 10
288.0
 20
479.82219510669682
 30
0.0
 11
287.0
 21
479.82219510669682
 31
0.0
  0
LINE
  5
8045
  8
0
 10
288.0
 20
474.82219510669671
 30
0.0
 11
287.0
 21
474.82219510669671
 31
0.0
  0
LINE
  5
8046
  8
0
 10
288.0
 20
471.82219510669682
 30
0.0
 11
287.0
 21
471.82219510669682
 31
0.0
  0
LINE
  5
8047
  8
0
 10
288.0
 20
472.82219510669671
 30
0.0
 11
287.0
 21
472.82219510669671
 31
0.0
  0
LINE
  5
8048
  8
0
 10
288.0
 20
477.8221951066966
 30
0.0
 11
287.0
 21
477.8221951066966
 31
0.0
  0
LINE
  5
8049
  8
0
 10
288.0
 20
476.82219510669671
 30
0.0
 11
287.0
 21
476.82219510669671
 31
0.0
  0
LINE
  5
804A
  8
0
 10
288.0
 20
475.82219510669682
 30
0.0
 11
287.0
 21
475.82219510669682
 31
0.0
  0
LINE
  5
804B
  8
0
 10
288.0
 20
473.82219510669671
 30
0.0
 11
286.0
 21
473.82219510669671
 31
0.0
  0
LINE
  5
804C
  8
0
 10
288.0
 20
488.82219510669671
 30
0.0
 11
285.0
 21
488.82219510669671
 31
0.0
  0
LINE
  5
804D
  8
0
 10
288.0
 20
487.82219510669682
 30
0.0
 11
287.0
 21
487.82219510669682
 31
0.0
  0
LINE
  5
804E
  8
0
 10
288.0
 20
485.8221951066966
 30
0.0
 11
287.0
 21
485.8221951066966
 31
0.0
  0
LINE
  5
804F
  8
0
 10
288.0
 20
484.82219510669671
 30
0.0
 11
287.0
 21
484.82219510669671
 31
0.0
  0
LINE
  5
8050
  8
0
 10
288.0
 20
480.82219510669671
 30
0.0
 11
287.0
 21
480.82219510669671
 31
0.0
  0
LINE
  5
8051
  8
0
 10
288.0
 20
481.8221951066966
 30
0.0
 11
287.0
 21
481.8221951066966
 31
0.0
  0
LINE
  5
8052
  8
0
 10
288.0
 20
482.82219510669671
 30
0.0
 11
287.0
 21
482.82219510669671
 31
0.0
  0
LINE
  5
8053
  8
0
 10
288.0
 20
486.82219510669671
 30
0.0
 11
287.0
 21
486.82219510669671
 31
0.0
  0
LINE
  5
8054
  8
0
 10
288.0
 20
483.82219510669682
 30
0.0
 11
286.0
 21
483.82219510669682
 31
0.0
  0
LINE
  5
8055
  8
0
 10
288.0
 20
495.82219510669671
 30
0.0
 11
287.0
 21
495.82219510669671
 31
0.0
  0
LINE
  5
8056
  8
0
 10
288.0
 20
496.82219510669682
 30
0.0
 11
287.0
 21
496.82219510669682
 31
0.0
  0
LINE
  5
8057
  8
0
 10
288.0
 20
494.82219510669671
 30
0.0
 11
287.0
 21
494.82219510669671
 31
0.0
  0
LINE
  5
8058
  8
0
 10
288.0
 20
489.8221951066966
 30
0.0
 11
287.0
 21
489.8221951066966
 31
0.0
  0
LINE
  5
8059
  8
0
 10
288.0
 20
490.82219510669671
 30
0.0
 11
287.0
 21
490.82219510669671
 31
0.0
  0
LINE
  5
805A
  8
0
 10
288.0
 20
491.82219510669671
 30
0.0
 11
287.0
 21
491.82219510669671
 31
0.0
  0
LINE
  5
805B
  8
0
 10
288.0
 20
492.82219510669682
 30
0.0
 11
287.0
 21
492.82219510669682
 31
0.0
  0
LINE
  5
805C
  8
0
 10
288.0
 20
493.82219510669671
 30
0.0
 11
286.0
 21
493.82219510669671
 31
0.0
  0
LINE
  5
805D
  8
0
 10
288.0
 20
498.82219510669671
 30
0.0
 11
285.0
 21
498.82219510669671
 31
0.0
  0
LINE
  5
805E
  8
0
 10
288.0
 20
504.82219510669682
 30
0.0
 11
287.0
 21
504.82219510669682
 31
0.0
  0
LINE
  5
805F
  8
0
 10
288.0
 20
505.82219510669671
 30
0.0
 11
287.0
 21
505.82219510669671
 31
0.0
  0
LINE
  5
8060
  8
0
 10
288.0
 20
503.82219510669671
 30
0.0
 11
286.0
 21
503.82219510669671
 31
0.0
  0
LINE
  5
8061
  8
0
 10
288.0
 20
497.82219510669671
 30
0.0
 11
287.0
 21
497.82219510669671
 31
0.0
  0
LINE
  5
8062
  8
0
 10
288.0
 20
502.8221951066966
 30
0.0
 11
287.0
 21
502.8221951066966
 31
0.0
  0
LINE
  5
8063
  8
0
 10
288.0
 20
501.82219510669671
 30
0.0
 11
287.0
 21
501.82219510669671
 31
0.0
  0
LINE
  5
8064
  8
0
 10
288.0
 20
500.82219510669682
 30
0.0
 11
287.0
 21
500.82219510669682
 31
0.0
  0
LINE
  5
8065
  8
0
 10
288.0
 20
499.82219510669671
 30
0.0
 11
287.0
 21
499.82219510669671
 31
0.0
  0
LINE
  5
8066
  8
0
 10
288.0
 20
506.8221951066966
 30
0.0
 11
287.0
 21
506.8221951066966
 31
0.0
  0
LINE
  5
8067
  8
0
 10
288.0
 20
507.82219510669671
 30
0.0
 11
287.0
 21
507.82219510669671
 31
0.0
  0
LINE
  5
8068
  8
0
 10
10.0
 20
208.82219510669691
 30
0.0
 11
13.0
 21
208.82219510669691
 31
0.0
  0
TEXT
  5
8069
  8
0
 10
15.33042310703968
 20
207.82219510669691
 30
0.0
 40
2.0
  1
80
 72
     2
 11
18.330423107039682
 21
208.82219510669691
 31
0.0
 73
     2
  0
TEXT
  5
806A
  8
0
 10
14.997089773706341
 20
117.8221951066969
 30
0.0
 40
2.0
  1
89
 72
     2
 11
18.330423107039682
 21
118.8221951066969
 31
0.0
 73
     2
  0
LINE
  5
806B
  8
0
 10
10.0
 20
108.8221951066969
 30
0.0
 11
13.0
 21
108.8221951066969
 31
0.0
  0
LINE
  5
806C
  8
0
 10
10.0
 20
109.8221951066969
 30
0.0
 11
11.0
 21
109.8221951066969
 31
0.0
  0
LINE
  5
806D
  8
0
 10
10.0
 20
118.8221951066969
 30
0.0
 11
13.0
 21
118.8221951066969
 31
0.0
  0
LINE
  5
806E
  8
0
 10
10.0
 20
117.8221951066969
 30
0.0
 11
11.0
 21
117.8221951066969
 31
0.0
  0
LINE
  5
806F
  8
0
 10
10.0
 20
116.8221951066969
 30
0.0
 11
11.0
 21
116.8221951066969
 31
0.0
  0
LINE
  5
8070
  8
0
 10
10.0
 20
115.8221951066968
 30
0.0
 11
11.0
 21
115.8221951066968
 31
0.0
  0
LINE
  5
8071
  8
0
 10
10.0
 20
114.8221951066968
 30
0.0
 11
11.0
 21
114.8221951066968
 31
0.0
  0
LINE
  5
8072
  8
0
 10
10.0
 20
113.8221951066968
 30
0.0
 11
12.0
 21
113.8221951066968
 31
0.0
  0
LINE
  5
8073
  8
0
 10
10.0
 20
110.8221951066969
 30
0.0
 11
11.0
 21
110.8221951066969
 31
0.0
  0
LINE
  5
8074
  8
0
 10
10.0
 20
111.8221951066969
 30
0.0
 11
11.0
 21
111.8221951066969
 31
0.0
  0
LINE
  5
8075
  8
0
 10
10.0
 20
112.8221951066968
 30
0.0
 11
11.0
 21
112.8221951066968
 31
0.0
  0
TEXT
  5
8076
  8
0
 10
15.33042310703968
 20
107.8221951066969
 30
0.0
 40
2.0
  1
90
 72
     2
 11
18.330423107039682
 21
108.8221951066969
 31
0.0
 73
     2
  0
LINE
  5
8077
  8
0
 10
10.0
 20
127.8221951066969
 30
0.0
 11
11.0
 21
127.8221951066969
 31
0.0
  0
LINE
  5
8078
  8
0
 10
10.0
 20
126.8221951066969
 30
0.0
 11
11.0
 21
126.8221951066969
 31
0.0
  0
LINE
  5
8079
  8
0
 10
10.0
 20
125.8221951066969
 30
0.0
 11
11.0
 21
125.8221951066969
 31
0.0
  0
LINE
  5
807A
  8
0
 10
10.0
 20
124.8221951066969
 30
0.0
 11
11.0
 21
124.8221951066969
 31
0.0
  0
LINE
  5
807B
  8
0
 10
10.0
 20
121.8221951066969
 30
0.0
 11
11.0
 21
121.8221951066969
 31
0.0
  0
LINE
  5
807C
  8
0
 10
10.0
 20
122.8221951066969
 30
0.0
 11
11.0
 21
122.8221951066969
 31
0.0
  0
LINE
  5
807D
  8
0
 10
10.0
 20
123.8221951066969
 30
0.0
 11
12.0
 21
123.8221951066969
 31
0.0
  0
LINE
  5
807E
  8
0
 10
10.0
 20
119.8221951066969
 30
0.0
 11
11.0
 21
119.8221951066969
 31
0.0
  0
LINE
  5
807F
  8
0
 10
10.0
 20
120.8221951066969
 30
0.0
 11
11.0
 21
120.8221951066969
 31
0.0
  0
LINE
  5
8080
  8
0
 10
10.0
 20
128.82219510669691
 30
0.0
 11
13.0
 21
128.82219510669691
 31
0.0
  0
LINE
  5
8081
  8
0
 10
10.0
 20
130.82219510669691
 30
0.0
 11
11.0
 21
130.82219510669691
 31
0.0
  0
LINE
  5
8082
  8
0
 10
10.0
 20
131.82219510669691
 30
0.0
 11
11.0
 21
131.82219510669691
 31
0.0
  0
LINE
  5
8083
  8
0
 10
10.0
 20
135.82219510669691
 30
0.0
 11
11.0
 21
135.82219510669691
 31
0.0
  0
LINE
  5
8084
  8
0
 10
10.0
 20
134.82219510669691
 30
0.0
 11
11.0
 21
134.82219510669691
 31
0.0
  0
LINE
  5
8085
  8
0
 10
10.0
 20
132.82219510669691
 30
0.0
 11
11.0
 21
132.82219510669691
 31
0.0
  0
LINE
  5
8086
  8
0
 10
10.0
 20
133.82219510669691
 30
0.0
 11
12.0
 21
133.82219510669691
 31
0.0
  0
LINE
  5
8087
  8
0
 10
10.0
 20
129.82219510669691
 30
0.0
 11
11.0
 21
129.82219510669691
 31
0.0
  0
TEXT
  5
8088
  8
0
 10
14.997089773706341
 20
127.8221951066969
 30
0.0
 40
2.0
  1
88
 72
     2
 11
18.330423107039682
 21
128.82219510669691
 31
0.0
 73
     2
  0
LINE
  5
8089
  8
0
 10
10.0
 20
138.82219510669671
 30
0.0
 11
13.0
 21
138.82219510669671
 31
0.0
  0
LINE
  5
808A
  8
0
 10
10.0
 20
139.82219510669671
 30
0.0
 11
11.0
 21
139.82219510669671
 31
0.0
  0
LINE
  5
808B
  8
0
 10
10.0
 20
140.8221951066968
 30
0.0
 11
11.0
 21
140.8221951066968
 31
0.0
  0
LINE
  5
808C
  8
0
 10
10.0
 20
141.82219510669691
 30
0.0
 11
11.0
 21
141.82219510669691
 31
0.0
  0
LINE
  5
808D
  8
0
 10
10.0
 20
142.82219510669691
 30
0.0
 11
11.0
 21
142.82219510669691
 31
0.0
  0
LINE
  5
808E
  8
0
 10
10.0
 20
144.82219510669691
 30
0.0
 11
11.0
 21
144.82219510669691
 31
0.0
  0
LINE
  5
808F
  8
0
 10
10.0
 20
143.8221951066968
 30
0.0
 11
12.0
 21
143.8221951066968
 31
0.0
  0
LINE
  5
8090
  8
0
 10
10.0
 20
137.82219510669671
 30
0.0
 11
11.0
 21
137.82219510669671
 31
0.0
  0
LINE
  5
8091
  8
0
 10
10.0
 20
136.82219510669691
 30
0.0
 11
11.0
 21
136.82219510669691
 31
0.0
  0
LINE
  5
8092
  8
0
 10
10.0
 20
148.82219510669691
 30
0.0
 11
13.0
 21
148.82219510669691
 31
0.0
  0
LINE
  5
8093
  8
0
 10
10.0
 20
147.82219510669691
 30
0.0
 11
11.0
 21
147.82219510669691
 31
0.0
  0
LINE
  5
8094
  8
0
 10
10.0
 20
146.82219510669691
 30
0.0
 11
11.0
 21
146.82219510669691
 31
0.0
  0
LINE
  5
8095
  8
0
 10
10.0
 20
149.82219510669691
 30
0.0
 11
11.0
 21
149.82219510669691
 31
0.0
  0
LINE
  5
8096
  8
0
 10
10.0
 20
150.82219510669691
 30
0.0
 11
11.0
 21
150.82219510669691
 31
0.0
  0
LINE
  5
8097
  8
0
 10
10.0
 20
151.82219510669691
 30
0.0
 11
11.0
 21
151.82219510669691
 31
0.0
  0
LINE
  5
8098
  8
0
 10
10.0
 20
152.82219510669691
 30
0.0
 11
11.0
 21
152.82219510669691
 31
0.0
  0
LINE
  5
8099
  8
0
 10
10.0
 20
153.82219510669691
 30
0.0
 11
12.0
 21
153.82219510669691
 31
0.0
  0
LINE
  5
809A
  8
0
 10
10.0
 20
145.82219510669691
 30
0.0
 11
11.0
 21
145.82219510669691
 31
0.0
  0
TEXT
  5
809B
  8
0
 10
14.99708977370635
 20
137.82219510669671
 30
0.0
 40
2.0
  1
87
 72
     2
 11
18.330423107039682
 21
138.82219510669671
 31
0.0
 73
     2
  0
TEXT
  5
809C
  8
0
 10
14.997089773706341
 20
147.82219510669691
 30
0.0
 40
2.0
  1
86
 72
     2
 11
18.330423107039682
 21
148.82219510669691
 31
0.0
 73
     2
  0
LINE
  5
809D
  8
0
 10
10.0
 20
158.82219510669691
 30
0.0
 11
13.0
 21
158.82219510669691
 31
0.0
  0
LINE
  5
809E
  8
0
 10
10.0
 20
162.82219510669691
 30
0.0
 11
11.0
 21
162.82219510669691
 31
0.0
  0
LINE
  5
809F
  8
0
 10
10.0
 20
157.82219510669691
 30
0.0
 11
11.0
 21
157.82219510669691
 31
0.0
  0
LINE
  5
80A0
  8
0
 10
10.0
 20
156.82219510669691
 30
0.0
 11
11.0
 21
156.82219510669691
 31
0.0
  0
LINE
  5
80A1
  8
0
 10
10.0
 20
155.82219510669691
 30
0.0
 11
11.0
 21
155.82219510669691
 31
0.0
  0
LINE
  5
80A2
  8
0
 10
10.0
 20
154.82219510669691
 30
0.0
 11
11.0
 21
154.82219510669691
 31
0.0
  0
LINE
  5
80A3
  8
0
 10
10.0
 20
159.82219510669691
 30
0.0
 11
11.0
 21
159.82219510669691
 31
0.0
  0
LINE
  5
80A4
  8
0
 10
10.0
 20
160.82219510669691
 30
0.0
 11
11.0
 21
160.82219510669691
 31
0.0
  0
LINE
  5
80A5
  8
0
 10
10.0
 20
161.82219510669691
 30
0.0
 11
11.0
 21
161.82219510669691
 31
0.0
  0
LINE
  5
80A6
  8
0
 10
10.0
 20
168.8221951066968
 30
0.0
 11
13.0
 21
168.8221951066968
 31
0.0
  0
LINE
  5
80A7
  8
0
 10
10.0
 20
167.82219510669691
 30
0.0
 11
11.0
 21
167.82219510669691
 31
0.0
  0
LINE
  5
80A8
  8
0
 10
10.0
 20
166.82219510669691
 30
0.0
 11
11.0
 21
166.82219510669691
 31
0.0
  0
LINE
  5
80A9
  8
0
 10
10.0
 20
165.8221951066968
 30
0.0
 11
11.0
 21
165.8221951066968
 31
0.0
  0
LINE
  5
80AA
  8
0
 10
10.0
 20
164.8221951066968
 30
0.0
 11
11.0
 21
164.8221951066968
 31
0.0
  0
LINE
  5
80AB
  8
0
 10
10.0
 20
169.82219510669691
 30
0.0
 11
11.0
 21
169.82219510669691
 31
0.0
  0
LINE
  5
80AC
  8
0
 10
10.0
 20
170.82219510669691
 30
0.0
 11
11.0
 21
170.82219510669691
 31
0.0
  0
LINE
  5
80AD
  8
0
 10
10.0
 20
163.8221951066968
 30
0.0
 11
12.0
 21
163.8221951066968
 31
0.0
  0
TEXT
  5
80AE
  8
0
 10
14.997089773706341
 20
157.82219510669691
 30
0.0
 40
2.0
  1
85
 72
     2
 11
18.330423107039682
 21
158.82219510669691
 31
0.0
 73
     2
  0
TEXT
  5
80AF
  8
0
 10
14.99708977370635
 20
167.8221951066968
 30
0.0
 40
2.0
  1
84
 72
     2
 11
18.330423107039682
 21
168.8221951066968
 31
0.0
 73
     2
  0
TEXT
  5
80B0
  8
0
 10
14.997089773706341
 20
187.82219510669671
 30
0.0
 40
2.0
  1
82
 72
     2
 11
18.330423107039682
 21
188.82219510669671
 31
0.0
 73
     2
  0
LINE
  5
80B1
  8
0
 10
10.0
 20
178.82219510669691
 30
0.0
 11
13.0
 21
178.82219510669691
 31
0.0
  0
LINE
  5
80B2
  8
0
 10
10.0
 20
179.82219510669691
 30
0.0
 11
11.0
 21
179.82219510669691
 31
0.0
  0
LINE
  5
80B3
  8
0
 10
10.0
 20
174.82219510669691
 30
0.0
 11
11.0
 21
174.82219510669691
 31
0.0
  0
LINE
  5
80B4
  8
0
 10
10.0
 20
171.82219510669691
 30
0.0
 11
11.0
 21
171.82219510669691
 31
0.0
  0
LINE
  5
80B5
  8
0
 10
10.0
 20
172.82219510669691
 30
0.0
 11
11.0
 21
172.82219510669691
 31
0.0
  0
LINE
  5
80B6
  8
0
 10
10.0
 20
177.82219510669691
 30
0.0
 11
11.0
 21
177.82219510669691
 31
0.0
  0
LINE
  5
80B7
  8
0
 10
10.0
 20
176.82219510669691
 30
0.0
 11
11.0
 21
176.82219510669691
 31
0.0
  0
LINE
  5
80B8
  8
0
 10
10.0
 20
175.82219510669691
 30
0.0
 11
11.0
 21
175.82219510669691
 31
0.0
  0
LINE
  5
80B9
  8
0
 10
10.0
 20
173.82219510669691
 30
0.0
 11
12.0
 21
173.82219510669691
 31
0.0
  0
LINE
  5
80BA
  8
0
 10
10.0
 20
188.82219510669671
 30
0.0
 11
13.0
 21
188.82219510669671
 31
0.0
  0
LINE
  5
80BB
  8
0
 10
10.0
 20
187.82219510669691
 30
0.0
 11
11.0
 21
187.82219510669691
 31
0.0
  0
LINE
  5
80BC
  8
0
 10
10.0
 20
185.82219510669691
 30
0.0
 11
11.0
 21
185.82219510669691
 31
0.0
  0
LINE
  5
80BD
  8
0
 10
10.0
 20
184.82219510669691
 30
0.0
 11
11.0
 21
184.82219510669691
 31
0.0
  0
LINE
  5
80BE
  8
0
 10
10.0
 20
180.82219510669691
 30
0.0
 11
11.0
 21
180.82219510669691
 31
0.0
  0
LINE
  5
80BF
  8
0
 10
10.0
 20
181.82219510669691
 30
0.0
 11
11.0
 21
181.82219510669691
 31
0.0
  0
LINE
  5
80C0
  8
0
 10
10.0
 20
182.82219510669691
 30
0.0
 11
11.0
 21
182.82219510669691
 31
0.0
  0
LINE
  5
80C1
  8
0
 10
10.0
 20
186.82219510669691
 30
0.0
 11
11.0
 21
186.82219510669691
 31
0.0
  0
LINE
  5
80C2
  8
0
 10
10.0
 20
183.82219510669691
 30
0.0
 11
12.0
 21
183.82219510669691
 31
0.0
  0
TEXT
  5
80C3
  8
0
 10
14.997089773706341
 20
177.82219510669691
 30
0.0
 40
2.0
  1
83
 72
     2
 11
18.330423107039682
 21
178.82219510669691
 31
0.0
 73
     2
  0
LINE
  5
80C4
  8
0
 10
10.0
 20
195.82219510669691
 30
0.0
 11
11.0
 21
195.82219510669691
 31
0.0
  0
LINE
  5
80C5
  8
0
 10
10.0
 20
196.82219510669691
 30
0.0
 11
11.0
 21
196.82219510669691
 31
0.0
  0
LINE
  5
80C6
  8
0
 10
10.0
 20
194.82219510669691
 30
0.0
 11
11.0
 21
194.82219510669691
 31
0.0
  0
LINE
  5
80C7
  8
0
 10
10.0
 20
189.82219510669671
 30
0.0
 11
11.0
 21
189.82219510669671
 31
0.0
  0
LINE
  5
80C8
  8
0
 10
10.0
 20
190.82219510669671
 30
0.0
 11
11.0
 21
190.82219510669671
 31
0.0
  0
LINE
  5
80C9
  8
0
 10
10.0
 20
191.82219510669691
 30
0.0
 11
11.0
 21
191.82219510669691
 31
0.0
  0
LINE
  5
80CA
  8
0
 10
10.0
 20
192.82219510669691
 30
0.0
 11
11.0
 21
192.82219510669691
 31
0.0
  0
LINE
  5
80CB
  8
0
 10
10.0
 20
193.82219510669671
 30
0.0
 11
12.0
 21
193.82219510669671
 31
0.0
  0
LINE
  5
80CC
  8
0
 10
10.0
 20
198.82219510669671
 30
0.0
 11
13.0
 21
198.82219510669671
 31
0.0
  0
LINE
  5
80CD
  8
0
 10
10.0
 20
204.82219510669691
 30
0.0
 11
11.0
 21
204.82219510669691
 31
0.0
  0
LINE
  5
80CE
  8
0
 10
10.0
 20
205.82219510669671
 30
0.0
 11
11.0
 21
205.82219510669671
 31
0.0
  0
LINE
  5
80CF
  8
0
 10
10.0
 20
203.82219510669671
 30
0.0
 11
12.0
 21
203.82219510669671
 31
0.0
  0
LINE
  5
80D0
  8
0
 10
10.0
 20
197.82219510669691
 30
0.0
 11
11.0
 21
197.82219510669691
 31
0.0
  0
LINE
  5
80D1
  8
0
 10
10.0
 20
202.82219510669691
 30
0.0
 11
11.0
 21
202.82219510669691
 31
0.0
  0
LINE
  5
80D2
  8
0
 10
10.0
 20
201.82219510669671
 30
0.0
 11
11.0
 21
201.82219510669671
 31
0.0
  0
LINE
  5
80D3
  8
0
 10
10.0
 20
200.82219510669691
 30
0.0
 11
11.0
 21
200.82219510669691
 31
0.0
  0
LINE
  5
80D4
  8
0
 10
10.0
 20
199.82219510669691
 30
0.0
 11
11.0
 21
199.82219510669691
 31
0.0
  0
TEXT
  5
80D5
  8
0
 10
15.66375644037301
 20
197.82219510669671
 30
0.0
 40
2.0
  1
81
 72
     2
 11
18.330423107039682
 21
198.82219510669671
 31
0.0
 73
     2
  0
LINE
  5
80D6
  8
0
 10
10.0
 20
206.82219510669691
 30
0.0
 11
11.0
 21
206.82219510669691
 31
0.0
  0
LINE
  5
80D7
  8
0
 10
10.0
 20
207.82219510669671
 30
0.0
 11
11.0
 21
207.82219510669671
 31
0.0
  0
LINE
  5
80D8
  8
0
 10
10.0
 20
12.82219510669699
 30
0.0
 11
11.0
 21
12.82219510669699
 31
0.0
  0
LINE
  5
80D9
  8
0
 10
10.0
 20
11.822195106696981
 30
0.0
 11
11.0
 21
11.822195106696981
 31
0.0
  0
LINE
  5
80DA
  8
0
 10
10.0
 20
10.82219510669699
 30
0.0
 11
11.0
 21
10.82219510669699
 31
0.0
  0
LINE
  5
80DB
  8
0
 10
10.0
 20
13.82219510669699
 30
0.0
 11
12.0
 21
13.82219510669699
 31
0.0
  0
LINE
  5
80DC
  8
0
 10
10.0
 20
9.822195106696995
 30
0.0
 11
11.0
 21
9.822195106696995
 31
0.0
  0
TEXT
  5
80DD
  8
0
 10
14.33042310703968
 20
9.0175770305733032
 30
0.0
 40
2.0
  1
100
 72
     2
 11
18.330423107039682
 21
10.0175770305733
 31
0.0
 73
     2
  0
LINE
  5
80DE
  8
0
 10
10.0
 20
18.822195106696991
 30
0.0
 11
13.0
 21
18.822195106696991
 31
0.0
  0
LINE
  5
80DF
  8
0
 10
10.0
 20
20.822195106696991
 30
0.0
 11
11.0
 21
20.822195106696991
 31
0.0
  0
LINE
  5
80E0
  8
0
 10
10.0
 20
19.822195106696981
 30
0.0
 11
11.0
 21
19.822195106696981
 31
0.0
  0
LINE
  5
80E1
  8
0
 10
10.0
 20
22.822195106696991
 30
0.0
 11
11.0
 21
22.822195106696991
 31
0.0
  0
LINE
  5
80E2
  8
0
 10
10.0
 20
21.822195106696991
 30
0.0
 11
11.0
 21
21.822195106696991
 31
0.0
  0
LINE
  5
80E3
  8
0
 10
10.0
 20
14.822195106696981
 30
0.0
 11
11.0
 21
14.822195106696981
 31
0.0
  0
LINE
  5
80E4
  8
0
 10
10.0
 20
15.82219510669699
 30
0.0
 11
11.0
 21
15.82219510669699
 31
0.0
  0
LINE
  5
80E5
  8
0
 10
10.0
 20
16.822195106696991
 30
0.0
 11
11.0
 21
16.822195106696991
 31
0.0
  0
LINE
  5
80E6
  8
0
 10
10.0
 20
17.822195106696981
 30
0.0
 11
11.0
 21
17.822195106696981
 31
0.0
  0
LINE
  5
80E7
  8
0
 10
10.0
 20
28.822195106696991
 30
0.0
 11
13.0
 21
28.822195106696991
 31
0.0
  0
LINE
  5
80E8
  8
0
 10
10.0
 20
29.822195106696981
 30
0.0
 11
11.0
 21
29.822195106696981
 31
0.0
  0
LINE
  5
80E9
  8
0
 10
10.0
 20
31.822195106696991
 30
0.0
 11
11.0
 21
31.822195106696991
 31
0.0
  0
LINE
  5
80EA
  8
0
 10
10.0
 20
30.822195106696991
 30
0.0
 11
11.0
 21
30.822195106696991
 31
0.0
  0
LINE
  5
80EB
  8
0
 10
10.0
 20
23.822195106696981
 30
0.0
 11
12.0
 21
23.822195106696981
 31
0.0
  0
LINE
  5
80EC
  8
0
 10
10.0
 20
24.822195106696981
 30
0.0
 11
11.0
 21
24.822195106696981
 31
0.0
  0
LINE
  5
80ED
  8
0
 10
10.0
 20
25.822195106696991
 30
0.0
 11
11.0
 21
25.822195106696991
 31
0.0
  0
LINE
  5
80EE
  8
0
 10
10.0
 20
26.822195106696991
 30
0.0
 11
11.0
 21
26.822195106696991
 31
0.0
  0
LINE
  5
80EF
  8
0
 10
10.0
 20
27.822195106696991
 30
0.0
 11
11.0
 21
27.822195106696991
 31
0.0
  0
TEXT
  5
80F0
  8
0
 10
14.997089773706341
 20
17.822195106696991
 30
0.0
 40
2.0
  1
99
 72
     2
 11
18.330423107039682
 21
18.822195106696991
 31
0.0
 73
     2
  0
TEXT
  5
80F1
  8
0
 10
14.997089773706341
 20
27.822195106696991
 30
0.0
 40
2.0
  1
98
 72
     2
 11
18.330423107039682
 21
28.822195106696991
 31
0.0
 73
     2
  0
TEXT
  5
80F2
  8
0
 10
14.997089773706341
 20
47.822195106696981
 30
0.0
 40
2.0
  1
96
 72
     2
 11
18.330423107039682
 21
48.822195106696988
 31
0.0
 73
     2
  0
LINE
  5
80F3
  8
0
 10
10.0
 20
38.822195106696988
 30
0.0
 11
13.0
 21
38.822195106696988
 31
0.0
  0
LINE
  5
80F4
  8
0
 10
10.0
 20
33.822195106696988
 30
0.0
 11
12.0
 21
33.822195106696988
 31
0.0
  0
LINE
  5
80F5
  8
0
 10
10.0
 20
32.822195106696988
 30
0.0
 11
11.0
 21
32.822195106696988
 31
0.0
  0
LINE
  5
80F6
  8
0
 10
10.0
 20
34.822195106696988
 30
0.0
 11
11.0
 21
34.822195106696988
 31
0.0
  0
LINE
  5
80F7
  8
0
 10
10.0
 20
35.822195106696988
 30
0.0
 11
11.0
 21
35.822195106696988
 31
0.0
  0
LINE
  5
80F8
  8
0
 10
10.0
 20
36.822195106696988
 30
0.0
 11
11.0
 21
36.822195106696988
 31
0.0
  0
LINE
  5
80F9
  8
0
 10
10.0
 20
37.822195106696988
 30
0.0
 11
11.0
 21
37.822195106696988
 31
0.0
  0
LINE
  5
80FA
  8
0
 10
10.0
 20
40.822195106696988
 30
0.0
 11
11.0
 21
40.822195106696988
 31
0.0
  0
LINE
  5
80FB
  8
0
 10
10.0
 20
39.822195106696988
 30
0.0
 11
11.0
 21
39.822195106696988
 31
0.0
  0
LINE
  5
80FC
  8
0
 10
10.0
 20
48.822195106696988
 30
0.0
 11
13.0
 21
48.822195106696988
 31
0.0
  0
LINE
  5
80FD
  8
0
 10
10.0
 20
45.822195106696981
 30
0.0
 11
11.0
 21
45.822195106696981
 31
0.0
  0
LINE
  5
80FE
  8
0
 10
10.0
 20
46.822195106696988
 30
0.0
 11
11.0
 21
46.822195106696988
 31
0.0
  0
LINE
  5
80FF
  8
0
 10
10.0
 20
47.822195106696981
 30
0.0
 11
11.0
 21
47.822195106696981
 31
0.0
  0
LINE
  5
8100
  8
0
 10
10.0
 20
43.822195106696981
 30
0.0
 11
12.0
 21
43.822195106696981
 31
0.0
  0
LINE
  5
8101
  8
0
 10
10.0
 20
44.822195106696988
 30
0.0
 11
11.0
 21
44.822195106696988
 31
0.0
  0
LINE
  5
8102
  8
0
 10
10.0
 20
42.822195106696988
 30
0.0
 11
11.0
 21
42.822195106696988
 31
0.0
  0
LINE
  5
8103
  8
0
 10
10.0
 20
41.822195106696988
 30
0.0
 11
11.0
 21
41.822195106696988
 31
0.0
  0
TEXT
  5
8104
  8
0
 10
14.99708977370635
 20
37.822195106696988
 30
0.0
 40
2.0
  1
97
 72
     2
 11
18.330423107039682
 21
38.822195106696988
 31
0.0
 73
     2
  0
LINE
  5
8105
  8
0
 10
10.0
 20
54.822195106696988
 30
0.0
 11
11.0
 21
54.822195106696988
 31
0.0
  0
LINE
  5
8106
  8
0
 10
10.0
 20
55.822195106696981
 30
0.0
 11
11.0
 21
55.822195106696981
 31
0.0
  0
LINE
  5
8107
  8
0
 10
10.0
 20
56.822195106697002
 30
0.0
 11
11.0
 21
56.822195106697002
 31
0.0
  0
LINE
  5
8108
  8
0
 10
10.0
 20
57.822195106696981
 30
0.0
 11
11.0
 21
57.822195106696981
 31
0.0
  0
LINE
  5
8109
  8
0
 10
10.0
 20
53.822195106696988
 30
0.0
 11
12.0
 21
53.822195106696988
 31
0.0
  0
LINE
  5
810A
  8
0
 10
10.0
 20
52.822195106696981
 30
0.0
 11
11.0
 21
52.822195106696981
 31
0.0
  0
LINE
  5
810B
  8
0
 10
10.0
 20
51.822195106697002
 30
0.0
 11
11.0
 21
51.822195106697002
 31
0.0
  0
LINE
  5
810C
  8
0
 10
10.0
 20
50.822195106696981
 30
0.0
 11
11.0
 21
50.822195106696981
 31
0.0
  0
LINE
  5
810D
  8
0
 10
10.0
 20
49.822195106696988
 30
0.0
 11
11.0
 21
49.822195106696988
 31
0.0
  0
LINE
  5
810E
  8
0
 10
10.0
 20
58.822195106696988
 30
0.0
 11
13.0
 21
58.822195106696988
 31
0.0
  0
LINE
  5
810F
  8
0
 10
10.0
 20
63.822195106696988
 30
0.0
 11
12.0
 21
63.822195106696988
 31
0.0
  0
LINE
  5
8110
  8
0
 10
10.0
 20
64.822195106696995
 30
0.0
 11
11.0
 21
64.822195106696995
 31
0.0
  0
LINE
  5
8111
  8
0
 10
10.0
 20
65.822195106696995
 30
0.0
 11
11.0
 21
65.822195106696995
 31
0.0
  0
LINE
  5
8112
  8
0
 10
10.0
 20
66.822195106696995
 30
0.0
 11
11.0
 21
66.822195106696995
 31
0.0
  0
LINE
  5
8113
  8
0
 10
10.0
 20
61.822195106697002
 30
0.0
 11
11.0
 21
61.822195106697002
 31
0.0
  0
LINE
  5
8114
  8
0
 10
10.0
 20
60.822195106696981
 30
0.0
 11
11.0
 21
60.822195106696981
 31
0.0
  0
LINE
  5
8115
  8
0
 10
10.0
 20
59.822195106696988
 30
0.0
 11
11.0
 21
59.822195106696988
 31
0.0
  0
LINE
  5
8116
  8
0
 10
10.0
 20
62.822195106696981
 30
0.0
 11
11.0
 21
62.822195106696981
 31
0.0
  0
TEXT
  5
8117
  8
0
 10
14.997089773706341
 20
57.822195106696981
 30
0.0
 40
2.0
  1
95
 72
     2
 11
18.330423107039682
 21
58.822195106696988
 31
0.0
 73
     2
  0
LINE
  5
8118
  8
0
 10
10.0
 20
68.822195106696995
 30
0.0
 11
13.0
 21
68.822195106696995
 31
0.0
  0
LINE
  5
8119
  8
0
 10
10.0
 20
73.822195106696995
 30
0.0
 11
12.0
 21
73.822195106696995
 31
0.0
  0
LINE
  5
811A
  8
0
 10
10.0
 20
72.822195106696995
 30
0.0
 11
11.0
 21
72.822195106696995
 31
0.0
  0
LINE
  5
811B
  8
0
 10
10.0
 20
71.822195106696995
 30
0.0
 11
11.0
 21
71.822195106696995
 31
0.0
  0
LINE
  5
811C
  8
0
 10
10.0
 20
74.822195106696995
 30
0.0
 11
11.0
 21
74.822195106696995
 31
0.0
  0
LINE
  5
811D
  8
0
 10
10.0
 20
70.822195106696995
 30
0.0
 11
11.0
 21
70.822195106696995
 31
0.0
  0
LINE
  5
811E
  8
0
 10
10.0
 20
69.822195106696995
 30
0.0
 11
11.0
 21
69.822195106696995
 31
0.0
  0
LINE
  5
811F
  8
0
 10
10.0
 20
67.822195106696995
 30
0.0
 11
11.0
 21
67.822195106696995
 31
0.0
  0
LINE
  5
8120
  8
0
 10
10.0
 20
78.822195106696995
 30
0.0
 11
13.0
 21
78.822195106696995
 31
0.0
  0
LINE
  5
8121
  8
0
 10
10.0
 20
83.822195106696995
 30
0.0
 11
12.0
 21
83.822195106696995
 31
0.0
  0
LINE
  5
8122
  8
0
 10
10.0
 20
82.822195106696995
 30
0.0
 11
11.0
 21
82.822195106696995
 31
0.0
  0
LINE
  5
8123
  8
0
 10
10.0
 20
81.822195106696995
 30
0.0
 11
11.0
 21
81.822195106696995
 31
0.0
  0
LINE
  5
8124
  8
0
 10
10.0
 20
80.822195106696995
 30
0.0
 11
11.0
 21
80.822195106696995
 31
0.0
  0
LINE
  5
8125
  8
0
 10
10.0
 20
75.822195106696995
 30
0.0
 11
11.0
 21
75.822195106696995
 31
0.0
  0
LINE
  5
8126
  8
0
 10
10.0
 20
76.822195106696995
 30
0.0
 11
11.0
 21
76.822195106696995
 31
0.0
  0
LINE
  5
8127
  8
0
 10
10.0
 20
77.822195106696995
 30
0.0
 11
11.0
 21
77.822195106696995
 31
0.0
  0
LINE
  5
8128
  8
0
 10
10.0
 20
79.822195106696995
 30
0.0
 11
11.0
 21
79.822195106696995
 31
0.0
  0
TEXT
  5
8129
  8
0
 10
14.99708977370635
 20
67.822195106696995
 30
0.0
 40
2.0
  1
94
 72
     2
 11
18.330423107039682
 21
68.822195106696995
 31
0.0
 73
     2
  0
TEXT
  5
812A
  8
0
 10
14.997089773706341
 20
77.822195106696995
 30
0.0
 40
2.0
  1
93
 72
     2
 11
18.330423107039682
 21
78.822195106696995
 31
0.0
 73
     2
  0
LINE
  5
812B
  8
0
 10
10.0
 20
88.822195106696995
 30
0.0
 11
13.0
 21
88.822195106696995
 31
0.0
  0
LINE
  5
812C
  8
0
 10
10.0
 20
92.822195106696967
 30
0.0
 11
11.0
 21
92.822195106696967
 31
0.0
  0
LINE
  5
812D
  8
0
 10
10.0
 20
91.822195106696981
 30
0.0
 11
11.0
 21
91.822195106696981
 31
0.0
  0
LINE
  5
812E
  8
0
 10
10.0
 20
90.822195106696981
 30
0.0
 11
11.0
 21
90.822195106696981
 31
0.0
  0
LINE
  5
812F
  8
0
 10
10.0
 20
89.822195106696995
 30
0.0
 11
11.0
 21
89.822195106696995
 31
0.0
  0
LINE
  5
8130
  8
0
 10
10.0
 20
86.822195106696995
 30
0.0
 11
11.0
 21
86.822195106696995
 31
0.0
  0
LINE
  5
8131
  8
0
 10
10.0
 20
84.822195106696995
 30
0.0
 11
11.0
 21
84.822195106696995
 31
0.0
  0
LINE
  5
8132
  8
0
 10
10.0
 20
85.822195106696995
 30
0.0
 11
11.0
 21
85.822195106696995
 31
0.0
  0
LINE
  5
8133
  8
0
 10
10.0
 20
87.822195106696995
 30
0.0
 11
11.0
 21
87.822195106696995
 31
0.0
  0
LINE
  5
8134
  8
0
 10
10.0
 20
98.822195106696995
 30
0.0
 11
13.0
 21
98.822195106696995
 31
0.0
  0
LINE
  5
8135
  8
0
 10
10.0
 20
99.822195106696995
 30
0.0
 11
11.0
 21
99.822195106696995
 31
0.0
  0
LINE
  5
8136
  8
0
 10
10.0
 20
100.8221951066969
 30
0.0
 11
11.0
 21
100.8221951066969
 31
0.0
  0
LINE
  5
8137
  8
0
 10
10.0
 20
101.8221951066969
 30
0.0
 11
11.0
 21
101.8221951066969
 31
0.0
  0
LINE
  5
8138
  8
0
 10
10.0
 20
97.822195106696981
 30
0.0
 11
11.0
 21
97.822195106696981
 31
0.0
  0
LINE
  5
8139
  8
0
 10
10.0
 20
93.822195106696967
 30
0.0
 11
12.0
 21
93.822195106696967
 31
0.0
  0
LINE
  5
813A
  8
0
 10
10.0
 20
94.822195106696995
 30
0.0
 11
11.0
 21
94.822195106696995
 31
0.0
  0
LINE
  5
813B
  8
0
 10
10.0
 20
96.822195106696981
 30
0.0
 11
11.0
 21
96.822195106696981
 31
0.0
  0
LINE
  5
813C
  8
0
 10
10.0
 20
95.822195106696981
 30
0.0
 11
11.0
 21
95.822195106696981
 31
0.0
  0
TEXT
  5
813D
  8
0
 10
14.997089773706341
 20
87.822195106696995
 30
0.0
 40
2.0
  1
92
 72
     2
 11
18.330423107039682
 21
88.822195106696995
 31
0.0
 73
     2
  0
TEXT
  5
813E
  8
0
 10
15.66375644037301
 20
97.822195106696981
 30
0.0
 40
2.0
  1
91
 72
     2
 11
18.330423107039682
 21
98.822195106696995
 31
0.0
 73
     2
  0
LINE
  5
813F
  8
0
 10
10.0
 20
107.8221951066969
 30
0.0
 11
11.0
 21
107.8221951066969
 31
0.0
  0
LINE
  5
8140
  8
0
 10
10.0
 20
106.8221951066969
 30
0.0
 11
11.0
 21
106.8221951066969
 31
0.0
  0
LINE
  5
8141
  8
0
 10
10.0
 20
102.8221951066969
 30
0.0
 11
11.0
 21
102.8221951066969
 31
0.0
  0
LINE
  5
8142
  8
0
 10
10.0
 20
103.8221951066969
 30
0.0
 11
12.0
 21
103.8221951066969
 31
0.0
  0
LINE
  5
8143
  8
0
 10
10.0
 20
105.8221951066969
 30
0.0
 11
11.0
 21
105.8221951066969
 31
0.0
  0
LINE
  5
8144
  8
0
 10
10.0
 20
104.8221951066969
 30
0.0
 11
11.0
 21
104.8221951066969
 31
0.0
  0
LINE
  5
8145
  8
0
 10
288.0
 20
9.822195106696995
 30
0.0
 11
287.0
 21
9.822195106696995
 31
0.0
  0
LINE
  5
8146
  8
0
 10
288.0
 20
18.822195106696991
 30
0.0
 11
285.0
 21
18.822195106696991
 31
0.0
  0
LINE
  5
8147
  8
0
 10
288.0
 20
17.822195106696981
 30
0.0
 11
287.0
 21
17.822195106696981
 31
0.0
  0
LINE
  5
8148
  8
0
 10
288.0
 20
16.822195106696991
 30
0.0
 11
287.0
 21
16.822195106696991
 31
0.0
  0
LINE
  5
8149
  8
0
 10
288.0
 20
15.82219510669699
 30
0.0
 11
287.0
 21
15.82219510669699
 31
0.0
  0
LINE
  5
814A
  8
0
 10
288.0
 20
14.822195106696981
 30
0.0
 11
287.0
 21
14.822195106696981
 31
0.0
  0
LINE
  5
814B
  8
0
 10
288.0
 20
13.82219510669699
 30
0.0
 11
286.0
 21
13.82219510669699
 31
0.0
  0
LINE
  5
814C
  8
0
 10
288.0
 20
10.82219510669699
 30
0.0
 11
287.0
 21
10.82219510669699
 31
0.0
  0
LINE
  5
814D
  8
0
 10
288.0
 20
11.822195106696981
 30
0.0
 11
287.0
 21
11.822195106696981
 31
0.0
  0
LINE
  5
814E
  8
0
 10
288.0
 20
12.82219510669699
 30
0.0
 11
287.0
 21
12.82219510669699
 31
0.0
  0
LINE
  5
814F
  8
0
 10
288.0
 20
26.822195106696991
 30
0.0
 11
287.0
 21
26.822195106696991
 31
0.0
  0
LINE
  5
8150
  8
0
 10
288.0
 20
25.822195106696991
 30
0.0
 11
287.0
 21
25.822195106696991
 31
0.0
  0
LINE
  5
8151
  8
0
 10
288.0
 20
24.822195106696981
 30
0.0
 11
287.0
 21
24.822195106696981
 31
0.0
  0
LINE
  5
8152
  8
0
 10
288.0
 20
23.822195106696981
 30
0.0
 11
286.0
 21
23.822195106696981
 31
0.0
  0
LINE
  5
8153
  8
0
 10
288.0
 20
21.822195106696991
 30
0.0
 11
287.0
 21
21.822195106696991
 31
0.0
  0
LINE
  5
8154
  8
0
 10
288.0
 20
22.822195106696991
 30
0.0
 11
287.0
 21
22.822195106696991
 31
0.0
  0
LINE
  5
8155
  8
0
 10
288.0
 20
19.822195106696981
 30
0.0
 11
287.0
 21
19.822195106696981
 31
0.0
  0
LINE
  5
8156
  8
0
 10
288.0
 20
20.822195106696991
 30
0.0
 11
287.0
 21
20.822195106696991
 31
0.0
  0
LINE
  5
8157
  8
0
 10
288.0
 20
28.822195106696991
 30
0.0
 11
285.0
 21
28.822195106696991
 31
0.0
  0
LINE
  5
8158
  8
0
 10
288.0
 20
35.822195106696988
 30
0.0
 11
287.0
 21
35.822195106696988
 31
0.0
  0
LINE
  5
8159
  8
0
 10
288.0
 20
34.822195106696988
 30
0.0
 11
287.0
 21
34.822195106696988
 31
0.0
  0
LINE
  5
815A
  8
0
 10
288.0
 20
32.822195106696988
 30
0.0
 11
287.0
 21
32.822195106696988
 31
0.0
  0
LINE
  5
815B
  8
0
 10
288.0
 20
33.822195106696988
 30
0.0
 11
286.0
 21
33.822195106696988
 31
0.0
  0
LINE
  5
815C
  8
0
 10
288.0
 20
27.822195106696991
 30
0.0
 11
287.0
 21
27.822195106696991
 31
0.0
  0
LINE
  5
815D
  8
0
 10
288.0
 20
30.822195106696991
 30
0.0
 11
287.0
 21
30.822195106696991
 31
0.0
  0
LINE
  5
815E
  8
0
 10
288.0
 20
31.822195106696991
 30
0.0
 11
287.0
 21
31.822195106696991
 31
0.0
  0
LINE
  5
815F
  8
0
 10
288.0
 20
29.822195106696981
 30
0.0
 11
287.0
 21
29.822195106696981
 31
0.0
  0
LINE
  5
8160
  8
0
 10
288.0
 20
38.822195106696988
 30
0.0
 11
285.0
 21
38.822195106696988
 31
0.0
  0
LINE
  5
8161
  8
0
 10
288.0
 20
41.822195106696988
 30
0.0
 11
287.0
 21
41.822195106696988
 31
0.0
  0
LINE
  5
8162
  8
0
 10
288.0
 20
42.822195106696988
 30
0.0
 11
287.0
 21
42.822195106696988
 31
0.0
  0
LINE
  5
8163
  8
0
 10
288.0
 20
44.822195106696988
 30
0.0
 11
287.0
 21
44.822195106696988
 31
0.0
  0
LINE
  5
8164
  8
0
 10
288.0
 20
43.822195106696981
 30
0.0
 11
286.0
 21
43.822195106696981
 31
0.0
  0
LINE
  5
8165
  8
0
 10
288.0
 20
39.822195106696988
 30
0.0
 11
287.0
 21
39.822195106696988
 31
0.0
  0
LINE
  5
8166
  8
0
 10
288.0
 20
40.822195106696988
 30
0.0
 11
287.0
 21
40.822195106696988
 31
0.0
  0
LINE
  5
8167
  8
0
 10
288.0
 20
37.822195106696988
 30
0.0
 11
287.0
 21
37.822195106696988
 31
0.0
  0
LINE
  5
8168
  8
0
 10
288.0
 20
36.822195106696988
 30
0.0
 11
287.0
 21
36.822195106696988
 31
0.0
  0
LINE
  5
8169
  8
0
 10
288.0
 20
48.822195106696988
 30
0.0
 11
285.0
 21
48.822195106696988
 31
0.0
  0
LINE
  5
816A
  8
0
 10
288.0
 20
49.822195106696988
 30
0.0
 11
287.0
 21
49.822195106696988
 31
0.0
  0
LINE
  5
816B
  8
0
 10
288.0
 20
50.822195106696981
 30
0.0
 11
287.0
 21
50.822195106696981
 31
0.0
  0
LINE
  5
816C
  8
0
 10
288.0
 20
51.822195106697002
 30
0.0
 11
287.0
 21
51.822195106697002
 31
0.0
  0
LINE
  5
816D
  8
0
 10
288.0
 20
52.822195106696981
 30
0.0
 11
287.0
 21
52.822195106696981
 31
0.0
  0
LINE
  5
816E
  8
0
 10
288.0
 20
47.822195106696981
 30
0.0
 11
287.0
 21
47.822195106696981
 31
0.0
  0
LINE
  5
816F
  8
0
 10
288.0
 20
46.822195106696988
 30
0.0
 11
287.0
 21
46.822195106696988
 31
0.0
  0
LINE
  5
8170
  8
0
 10
288.0
 20
45.822195106696981
 30
0.0
 11
287.0
 21
45.822195106696981
 31
0.0
  0
LINE
  5
8171
  8
0
 10
288.0
 20
58.822195106696988
 30
0.0
 11
285.0
 21
58.822195106696988
 31
0.0
  0
LINE
  5
8172
  8
0
 10
288.0
 20
59.822195106696988
 30
0.0
 11
287.0
 21
59.822195106696988
 31
0.0
  0
LINE
  5
8173
  8
0
 10
288.0
 20
60.822195106696981
 30
0.0
 11
287.0
 21
60.822195106696981
 31
0.0
  0
LINE
  5
8174
  8
0
 10
288.0
 20
61.822195106697002
 30
0.0
 11
287.0
 21
61.822195106697002
 31
0.0
  0
LINE
  5
8175
  8
0
 10
288.0
 20
53.822195106696988
 30
0.0
 11
286.0
 21
53.822195106696988
 31
0.0
  0
LINE
  5
8176
  8
0
 10
288.0
 20
57.822195106696981
 30
0.0
 11
287.0
 21
57.822195106696981
 31
0.0
  0
LINE
  5
8177
  8
0
 10
288.0
 20
56.822195106697002
 30
0.0
 11
287.0
 21
56.822195106697002
 31
0.0
  0
LINE
  5
8178
  8
0
 10
288.0
 20
55.822195106696981
 30
0.0
 11
287.0
 21
55.822195106696981
 31
0.0
  0
LINE
  5
8179
  8
0
 10
288.0
 20
54.822195106696988
 30
0.0
 11
287.0
 21
54.822195106696988
 31
0.0
  0
LINE
  5
817A
  8
0
 10
288.0
 20
68.822195106696995
 30
0.0
 11
285.0
 21
68.822195106696995
 31
0.0
  0
LINE
  5
817B
  8
0
 10
288.0
 20
67.822195106696995
 30
0.0
 11
287.0
 21
67.822195106696995
 31
0.0
  0
LINE
  5
817C
  8
0
 10
288.0
 20
69.822195106696995
 30
0.0
 11
287.0
 21
69.822195106696995
 31
0.0
  0
LINE
  5
817D
  8
0
 10
288.0
 20
70.822195106696995
 30
0.0
 11
287.0
 21
70.822195106696995
 31
0.0
  0
LINE
  5
817E
  8
0
 10
288.0
 20
62.822195106696981
 30
0.0
 11
287.0
 21
62.822195106696981
 31
0.0
  0
LINE
  5
817F
  8
0
 10
288.0
 20
66.822195106696995
 30
0.0
 11
287.0
 21
66.822195106696995
 31
0.0
  0
LINE
  5
8180
  8
0
 10
288.0
 20
65.822195106696995
 30
0.0
 11
287.0
 21
65.822195106696995
 31
0.0
  0
LINE
  5
8181
  8
0
 10
288.0
 20
64.822195106696995
 30
0.0
 11
287.0
 21
64.822195106696995
 31
0.0
  0
LINE
  5
8182
  8
0
 10
288.0
 20
63.822195106696988
 30
0.0
 11
286.0
 21
63.822195106696988
 31
0.0
  0
LINE
  5
8183
  8
0
 10
288.0
 20
78.822195106696995
 30
0.0
 11
285.0
 21
78.822195106696995
 31
0.0
  0
LINE
  5
8184
  8
0
 10
288.0
 20
79.822195106696995
 30
0.0
 11
287.0
 21
79.822195106696995
 31
0.0
  0
LINE
  5
8185
  8
0
 10
288.0
 20
77.822195106696995
 30
0.0
 11
287.0
 21
77.822195106696995
 31
0.0
  0
LINE
  5
8186
  8
0
 10
288.0
 20
76.822195106696995
 30
0.0
 11
287.0
 21
76.822195106696995
 31
0.0
  0
LINE
  5
8187
  8
0
 10
288.0
 20
75.822195106696995
 30
0.0
 11
287.0
 21
75.822195106696995
 31
0.0
  0
LINE
  5
8188
  8
0
 10
288.0
 20
74.822195106696995
 30
0.0
 11
287.0
 21
74.822195106696995
 31
0.0
  0
LINE
  5
8189
  8
0
 10
288.0
 20
71.822195106696995
 30
0.0
 11
287.0
 21
71.822195106696995
 31
0.0
  0
LINE
  5
818A
  8
0
 10
288.0
 20
72.822195106696995
 30
0.0
 11
287.0
 21
72.822195106696995
 31
0.0
  0
LINE
  5
818B
  8
0
 10
288.0
 20
73.822195106696995
 30
0.0
 11
286.0
 21
73.822195106696995
 31
0.0
  0
LINE
  5
818C
  8
0
 10
288.0
 20
87.822195106696995
 30
0.0
 11
287.0
 21
87.822195106696995
 31
0.0
  0
LINE
  5
818D
  8
0
 10
288.0
 20
85.822195106696995
 30
0.0
 11
287.0
 21
85.822195106696995
 31
0.0
  0
LINE
  5
818E
  8
0
 10
288.0
 20
84.822195106696995
 30
0.0
 11
287.0
 21
84.822195106696995
 31
0.0
  0
LINE
  5
818F
  8
0
 10
288.0
 20
86.822195106696995
 30
0.0
 11
287.0
 21
86.822195106696995
 31
0.0
  0
LINE
  5
8190
  8
0
 10
288.0
 20
80.822195106696995
 30
0.0
 11
287.0
 21
80.822195106696995
 31
0.0
  0
LINE
  5
8191
  8
0
 10
288.0
 20
81.822195106696995
 30
0.0
 11
287.0
 21
81.822195106696995
 31
0.0
  0
LINE
  5
8192
  8
0
 10
288.0
 20
82.822195106696995
 30
0.0
 11
287.0
 21
82.822195106696995
 31
0.0
  0
LINE
  5
8193
  8
0
 10
288.0
 20
83.822195106696995
 30
0.0
 11
286.0
 21
83.822195106696995
 31
0.0
  0
LINE
  5
8194
  8
0
 10
288.0
 20
88.822195106696995
 30
0.0
 11
285.0
 21
88.822195106696995
 31
0.0
  0
LINE
  5
8195
  8
0
 10
288.0
 20
95.822195106696981
 30
0.0
 11
287.0
 21
95.822195106696981
 31
0.0
  0
LINE
  5
8196
  8
0
 10
288.0
 20
96.822195106696981
 30
0.0
 11
287.0
 21
96.822195106696981
 31
0.0
  0
LINE
  5
8197
  8
0
 10
288.0
 20
94.822195106696995
 30
0.0
 11
287.0
 21
94.822195106696995
 31
0.0
  0
LINE
  5
8198
  8
0
 10
288.0
 20
93.822195106696967
 30
0.0
 11
286.0
 21
93.822195106696967
 31
0.0
  0
LINE
  5
8199
  8
0
 10
288.0
 20
89.822195106696995
 30
0.0
 11
287.0
 21
89.822195106696995
 31
0.0
  0
LINE
  5
819A
  8
0
 10
288.0
 20
90.822195106696981
 30
0.0
 11
287.0
 21
90.822195106696981
 31
0.0
  0
LINE
  5
819B
  8
0
 10
288.0
 20
91.822195106696981
 30
0.0
 11
287.0
 21
91.822195106696981
 31
0.0
  0
LINE
  5
819C
  8
0
 10
288.0
 20
92.822195106696967
 30
0.0
 11
287.0
 21
92.822195106696967
 31
0.0
  0
LINE
  5
819D
  8
0
 10
288.0
 20
98.822195106696995
 30
0.0
 11
285.0
 21
98.822195106696995
 31
0.0
  0
LINE
  5
819E
  8
0
 10
288.0
 20
104.8221951066969
 30
0.0
 11
287.0
 21
104.8221951066969
 31
0.0
  0
LINE
  5
819F
  8
0
 10
288.0
 20
105.8221951066969
 30
0.0
 11
287.0
 21
105.8221951066969
 31
0.0
  0
LINE
  5
81A0
  8
0
 10
288.0
 20
103.8221951066969
 30
0.0
 11
286.0
 21
103.8221951066969
 31
0.0
  0
LINE
  5
81A1
  8
0
 10
288.0
 20
102.8221951066969
 30
0.0
 11
287.0
 21
102.8221951066969
 31
0.0
  0
LINE
  5
81A2
  8
0
 10
288.0
 20
97.822195106696981
 30
0.0
 11
287.0
 21
97.822195106696981
 31
0.0
  0
LINE
  5
81A3
  8
0
 10
288.0
 20
101.8221951066969
 30
0.0
 11
287.0
 21
101.8221951066969
 31
0.0
  0
LINE
  5
81A4
  8
0
 10
288.0
 20
100.8221951066969
 30
0.0
 11
287.0
 21
100.8221951066969
 31
0.0
  0
LINE
  5
81A5
  8
0
 10
288.0
 20
99.822195106696995
 30
0.0
 11
287.0
 21
99.822195106696995
 31
0.0
  0
LINE
  5
81A6
  8
0
 10
288.0
 20
108.8221951066969
 30
0.0
 11
285.0
 21
108.8221951066969
 31
0.0
  0
LINE
  5
81A7
  8
0
 10
288.0
 20
106.8221951066969
 30
0.0
 11
287.0
 21
106.8221951066969
 31
0.0
  0
LINE
  5
81A8
  8
0
 10
288.0
 20
107.8221951066969
 30
0.0
 11
287.0
 21
107.8221951066969
 31
0.0
  0
LINE
  5
81A9
  8
0
 10
288.0
 20
112.8221951066968
 30
0.0
 11
287.0
 21
112.8221951066968
 31
0.0
  0
LINE
  5
81AA
  8
0
 10
288.0
 20
111.8221951066969
 30
0.0
 11
287.0
 21
111.8221951066969
 31
0.0
  0
LINE
  5
81AB
  8
0
 10
288.0
 20
110.8221951066969
 30
0.0
 11
287.0
 21
110.8221951066969
 31
0.0
  0
LINE
  5
81AC
  8
0
 10
288.0
 20
113.8221951066968
 30
0.0
 11
286.0
 21
113.8221951066968
 31
0.0
  0
LINE
  5
81AD
  8
0
 10
288.0
 20
109.8221951066969
 30
0.0
 11
287.0
 21
109.8221951066969
 31
0.0
  0
LINE
  5
81AE
  8
0
 10
288.0
 20
118.8221951066969
 30
0.0
 11
285.0
 21
118.8221951066969
 31
0.0
  0
LINE
  5
81AF
  8
0
 10
288.0
 20
120.8221951066969
 30
0.0
 11
287.0
 21
120.8221951066969
 31
0.0
  0
LINE
  5
81B0
  8
0
 10
288.0
 20
119.8221951066969
 30
0.0
 11
287.0
 21
119.8221951066969
 31
0.0
  0
LINE
  5
81B1
  8
0
 10
288.0
 20
122.8221951066969
 30
0.0
 11
287.0
 21
122.8221951066969
 31
0.0
  0
LINE
  5
81B2
  8
0
 10
288.0
 20
121.8221951066969
 30
0.0
 11
287.0
 21
121.8221951066969
 31
0.0
  0
LINE
  5
81B3
  8
0
 10
288.0
 20
114.8221951066968
 30
0.0
 11
287.0
 21
114.8221951066968
 31
0.0
  0
LINE
  5
81B4
  8
0
 10
288.0
 20
115.8221951066968
 30
0.0
 11
287.0
 21
115.8221951066968
 31
0.0
  0
LINE
  5
81B5
  8
0
 10
288.0
 20
116.8221951066969
 30
0.0
 11
287.0
 21
116.8221951066969
 31
0.0
  0
LINE
  5
81B6
  8
0
 10
288.0
 20
117.8221951066969
 30
0.0
 11
287.0
 21
117.8221951066969
 31
0.0
  0
LINE
  5
81B7
  8
0
 10
288.0
 20
128.82219510669691
 30
0.0
 11
285.0
 21
128.82219510669691
 31
0.0
  0
LINE
  5
81B8
  8
0
 10
288.0
 20
129.82219510669691
 30
0.0
 11
287.0
 21
129.82219510669691
 31
0.0
  0
LINE
  5
81B9
  8
0
 10
288.0
 20
131.82219510669691
 30
0.0
 11
287.0
 21
131.82219510669691
 31
0.0
  0
LINE
  5
81BA
  8
0
 10
288.0
 20
130.82219510669691
 30
0.0
 11
287.0
 21
130.82219510669691
 31
0.0
  0
LINE
  5
81BB
  8
0
 10
288.0
 20
123.8221951066969
 30
0.0
 11
286.0
 21
123.8221951066969
 31
0.0
  0
LINE
  5
81BC
  8
0
 10
288.0
 20
124.8221951066969
 30
0.0
 11
287.0
 21
124.8221951066969
 31
0.0
  0
LINE
  5
81BD
  8
0
 10
288.0
 20
125.8221951066969
 30
0.0
 11
287.0
 21
125.8221951066969
 31
0.0
  0
LINE
  5
81BE
  8
0
 10
288.0
 20
126.8221951066969
 30
0.0
 11
287.0
 21
126.8221951066969
 31
0.0
  0
LINE
  5
81BF
  8
0
 10
288.0
 20
127.8221951066969
 30
0.0
 11
287.0
 21
127.8221951066969
 31
0.0
  0
LINE
  5
81C0
  8
0
 10
288.0
 20
138.82219510669671
 30
0.0
 11
285.0
 21
138.82219510669671
 31
0.0
  0
LINE
  5
81C1
  8
0
 10
288.0
 20
133.82219510669691
 30
0.0
 11
286.0
 21
133.82219510669691
 31
0.0
  0
LINE
  5
81C2
  8
0
 10
288.0
 20
132.82219510669691
 30
0.0
 11
287.0
 21
132.82219510669691
 31
0.0
  0
LINE
  5
81C3
  8
0
 10
288.0
 20
134.82219510669691
 30
0.0
 11
287.0
 21
134.82219510669691
 31
0.0
  0
LINE
  5
81C4
  8
0
 10
288.0
 20
135.82219510669691
 30
0.0
 11
287.0
 21
135.82219510669691
 31
0.0
  0
LINE
  5
81C5
  8
0
 10
288.0
 20
136.82219510669691
 30
0.0
 11
287.0
 21
136.82219510669691
 31
0.0
  0
LINE
  5
81C6
  8
0
 10
288.0
 20
137.82219510669671
 30
0.0
 11
287.0
 21
137.82219510669671
 31
0.0
  0
LINE
  5
81C7
  8
0
 10
288.0
 20
140.8221951066968
 30
0.0
 11
287.0
 21
140.8221951066968
 31
0.0
  0
LINE
  5
81C8
  8
0
 10
288.0
 20
139.82219510669671
 30
0.0
 11
287.0
 21
139.82219510669671
 31
0.0
  0
LINE
  5
81C9
  8
0
 10
288.0
 20
148.82219510669691
 30
0.0
 11
285.0
 21
148.82219510669691
 31
0.0
  0
LINE
  5
81CA
  8
0
 10
288.0
 20
145.82219510669691
 30
0.0
 11
287.0
 21
145.82219510669691
 31
0.0
  0
LINE
  5
81CB
  8
0
 10
288.0
 20
146.82219510669691
 30
0.0
 11
287.0
 21
146.82219510669691
 31
0.0
  0
LINE
  5
81CC
  8
0
 10
288.0
 20
147.82219510669691
 30
0.0
 11
287.0
 21
147.82219510669691
 31
0.0
  0
LINE
  5
81CD
  8
0
 10
288.0
 20
143.8221951066968
 30
0.0
 11
286.0
 21
143.8221951066968
 31
0.0
  0
LINE
  5
81CE
  8
0
 10
288.0
 20
144.82219510669691
 30
0.0
 11
287.0
 21
144.82219510669691
 31
0.0
  0
LINE
  5
81CF
  8
0
 10
288.0
 20
142.82219510669691
 30
0.0
 11
287.0
 21
142.82219510669691
 31
0.0
  0
LINE
  5
81D0
  8
0
 10
288.0
 20
141.82219510669691
 30
0.0
 11
287.0
 21
141.82219510669691
 31
0.0
  0
LINE
  5
81D1
  8
0
 10
288.0
 20
154.82219510669691
 30
0.0
 11
287.0
 21
154.82219510669691
 31
0.0
  0
LINE
  5
81D2
  8
0
 10
288.0
 20
155.82219510669691
 30
0.0
 11
287.0
 21
155.82219510669691
 31
0.0
  0
LINE
  5
81D3
  8
0
 10
288.0
 20
156.82219510669691
 30
0.0
 11
287.0
 21
156.82219510669691
 31
0.0
  0
LINE
  5
81D4
  8
0
 10
288.0
 20
157.82219510669691
 30
0.0
 11
287.0
 21
157.82219510669691
 31
0.0
  0
LINE
  5
81D5
  8
0
 10
288.0
 20
153.82219510669691
 30
0.0
 11
286.0
 21
153.82219510669691
 31
0.0
  0
LINE
  5
81D6
  8
0
 10
288.0
 20
152.82219510669691
 30
0.0
 11
287.0
 21
152.82219510669691
 31
0.0
  0
LINE
  5
81D7
  8
0
 10
288.0
 20
151.82219510669691
 30
0.0
 11
287.0
 21
151.82219510669691
 31
0.0
  0
LINE
  5
81D8
  8
0
 10
288.0
 20
150.82219510669691
 30
0.0
 11
287.0
 21
150.82219510669691
 31
0.0
  0
LINE
  5
81D9
  8
0
 10
288.0
 20
149.82219510669691
 30
0.0
 11
287.0
 21
149.82219510669691
 31
0.0
  0
LINE
  5
81DA
  8
0
 10
288.0
 20
158.82219510669691
 30
0.0
 11
285.0
 21
158.82219510669691
 31
0.0
  0
LINE
  5
81DB
  8
0
 10
288.0
 20
163.8221951066968
 30
0.0
 11
286.0
 21
163.8221951066968
 31
0.0
  0
LINE
  5
81DC
  8
0
 10
288.0
 20
164.8221951066968
 30
0.0
 11
287.0
 21
164.8221951066968
 31
0.0
  0
LINE
  5
81DD
  8
0
 10
288.0
 20
165.8221951066968
 30
0.0
 11
287.0
 21
165.8221951066968
 31
0.0
  0
LINE
  5
81DE
  8
0
 10
288.0
 20
166.82219510669691
 30
0.0
 11
287.0
 21
166.82219510669691
 31
0.0
  0
LINE
  5
81DF
  8
0
 10
288.0
 20
161.82219510669691
 30
0.0
 11
287.0
 21
161.82219510669691
 31
0.0
  0
LINE
  5
81E0
  8
0
 10
288.0
 20
160.82219510669691
 30
0.0
 11
287.0
 21
160.82219510669691
 31
0.0
  0
LINE
  5
81E1
  8
0
 10
288.0
 20
159.82219510669691
 30
0.0
 11
287.0
 21
159.82219510669691
 31
0.0
  0
LINE
  5
81E2
  8
0
 10
288.0
 20
162.82219510669691
 30
0.0
 11
287.0
 21
162.82219510669691
 31
0.0
  0
LINE
  5
81E3
  8
0
 10
288.0
 20
168.8221951066968
 30
0.0
 11
285.0
 21
168.8221951066968
 31
0.0
  0
LINE
  5
81E4
  8
0
 10
288.0
 20
173.82219510669691
 30
0.0
 11
286.0
 21
173.82219510669691
 31
0.0
  0
LINE
  5
81E5
  8
0
 10
288.0
 20
172.82219510669691
 30
0.0
 11
287.0
 21
172.82219510669691
 31
0.0
  0
LINE
  5
81E6
  8
0
 10
288.0
 20
171.82219510669691
 30
0.0
 11
287.0
 21
171.82219510669691
 31
0.0
  0
LINE
  5
81E7
  8
0
 10
288.0
 20
174.82219510669691
 30
0.0
 11
287.0
 21
174.82219510669691
 31
0.0
  0
LINE
  5
81E8
  8
0
 10
288.0
 20
170.82219510669691
 30
0.0
 11
287.0
 21
170.82219510669691
 31
0.0
  0
LINE
  5
81E9
  8
0
 10
288.0
 20
169.82219510669691
 30
0.0
 11
287.0
 21
169.82219510669691
 31
0.0
  0
LINE
  5
81EA
  8
0
 10
288.0
 20
167.82219510669691
 30
0.0
 11
287.0
 21
167.82219510669691
 31
0.0
  0
LINE
  5
81EB
  8
0
 10
288.0
 20
178.82219510669691
 30
0.0
 11
285.0
 21
178.82219510669691
 31
0.0
  0
LINE
  5
81EC
  8
0
 10
288.0
 20
183.82219510669691
 30
0.0
 11
286.0
 21
183.82219510669691
 31
0.0
  0
LINE
  5
81ED
  8
0
 10
288.0
 20
182.82219510669691
 30
0.0
 11
287.0
 21
182.82219510669691
 31
0.0
  0
LINE
  5
81EE
  8
0
 10
288.0
 20
181.82219510669691
 30
0.0
 11
287.0
 21
181.82219510669691
 31
0.0
  0
LINE
  5
81EF
  8
0
 10
288.0
 20
180.82219510669691
 30
0.0
 11
287.0
 21
180.82219510669691
 31
0.0
  0
LINE
  5
81F0
  8
0
 10
288.0
 20
175.82219510669691
 30
0.0
 11
287.0
 21
175.82219510669691
 31
0.0
  0
LINE
  5
81F1
  8
0
 10
288.0
 20
176.82219510669691
 30
0.0
 11
287.0
 21
176.82219510669691
 31
0.0
  0
LINE
  5
81F2
  8
0
 10
288.0
 20
177.82219510669691
 30
0.0
 11
287.0
 21
177.82219510669691
 31
0.0
  0
LINE
  5
81F3
  8
0
 10
288.0
 20
179.82219510669691
 30
0.0
 11
287.0
 21
179.82219510669691
 31
0.0
  0
LINE
  5
81F4
  8
0
 10
288.0
 20
188.82219510669671
 30
0.0
 11
285.0
 21
188.82219510669671
 31
0.0
  0
LINE
  5
81F5
  8
0
 10
288.0
 20
192.82219510669691
 30
0.0
 11
287.0
 21
192.82219510669691
 31
0.0
  0
LINE
  5
81F6
  8
0
 10
288.0
 20
191.82219510669691
 30
0.0
 11
287.0
 21
191.82219510669691
 31
0.0
  0
LINE
  5
81F7
  8
0
 10
288.0
 20
190.82219510669671
 30
0.0
 11
287.0
 21
190.82219510669671
 31
0.0
  0
LINE
  5
81F8
  8
0
 10
288.0
 20
189.82219510669671
 30
0.0
 11
287.0
 21
189.82219510669671
 31
0.0
  0
LINE
  5
81F9
  8
0
 10
288.0
 20
186.82219510669691
 30
0.0
 11
287.0
 21
186.82219510669691
 31
0.0
  0
LINE
  5
81FA
  8
0
 10
288.0
 20
184.82219510669691
 30
0.0
 11
287.0
 21
184.82219510669691
 31
0.0
  0
LINE
  5
81FB
  8
0
 10
288.0
 20
185.82219510669691
 30
0.0
 11
287.0
 21
185.82219510669691
 31
0.0
  0
LINE
  5
81FC
  8
0
 10
288.0
 20
187.82219510669691
 30
0.0
 11
287.0
 21
187.82219510669691
 31
0.0
  0
LINE
  5
81FD
  8
0
 10
288.0
 20
198.82219510669671
 30
0.0
 11
285.0
 21
198.82219510669671
 31
0.0
  0
LINE
  5
81FE
  8
0
 10
288.0
 20
199.82219510669691
 30
0.0
 11
287.0
 21
199.82219510669691
 31
0.0
  0
LINE
  5
81FF
  8
0
 10
288.0
 20
200.82219510669691
 30
0.0
 11
287.0
 21
200.82219510669691
 31
0.0
  0
LINE
  5
8200
  8
0
 10
288.0
 20
201.82219510669671
 30
0.0
 11
287.0
 21
201.82219510669671
 31
0.0
  0
LINE
  5
8201
  8
0
 10
288.0
 20
197.82219510669691
 30
0.0
 11
287.0
 21
197.82219510669691
 31
0.0
  0
LINE
  5
8202
  8
0
 10
288.0
 20
193.82219510669671
 30
0.0
 11
286.0
 21
193.82219510669671
 31
0.0
  0
LINE
  5
8203
  8
0
 10
288.0
 20
194.82219510669691
 30
0.0
 11
287.0
 21
194.82219510669691
 31
0.0
  0
LINE
  5
8204
  8
0
 10
288.0
 20
196.82219510669691
 30
0.0
 11
287.0
 21
196.82219510669691
 31
0.0
  0
LINE
  5
8205
  8
0
 10
288.0
 20
195.82219510669691
 30
0.0
 11
287.0
 21
195.82219510669691
 31
0.0
  0
LINE
  5
8206
  8
0
 10
288.0
 20
208.82219510669691
 30
0.0
 11
285.0
 21
208.82219510669691
 31
0.0
  0
LINE
  5
8207
  8
0
 10
288.0
 20
207.82219510669671
 30
0.0
 11
287.0
 21
207.82219510669671
 31
0.0
  0
LINE
  5
8208
  8
0
 10
288.0
 20
206.82219510669691
 30
0.0
 11
287.0
 21
206.82219510669691
 31
0.0
  0
LINE
  5
8209
  8
0
 10
288.0
 20
202.82219510669691
 30
0.0
 11
287.0
 21
202.82219510669691
 31
0.0
  0
LINE
  5
820A
  8
0
 10
288.0
 20
203.82219510669671
 30
0.0
 11
286.0
 21
203.82219510669671
 31
0.0
  0
LINE
  5
820B
  8
0
 10
288.0
 20
205.82219510669671
 30
0.0
 11
287.0
 21
205.82219510669671
 31
0.0
  0
LINE
  5
820C
  8
0
 10
288.0
 20
204.82219510669691
 30
0.0
 11
287.0
 21
204.82219510669691
 31
0.0
  0
LINE
  5
820D
  8
0
 10
10.0
 20
508.82219510669682
 30
0.0
 11
12.0
 21
508.82219510669682
 31
0.0
  0
LINE
  5
820E
  8
0
 10
288.0
 20
508.82219510669682
 30
0.0
 11
285.0
 21
508.82219510669682
 31
0.0
  0
TEXT
  5
8218
  8
0
 10
227.35040231287661
 20
4.347146877629454
 30
0.0
 40
3.0
  1
地すべり調査用ボーリング柱状図様式
 11
227.35040231287661
 21
5.847146877629454
 31
0.0
 73
     2
  0
VIEWPORT
  5
8211
 67
     1
  8
0
 10
63.379714567022802
 20
183.7449289945998
 30
0.0
 40
312.00160463385379
 41
240.8901277942291
 68
     1
 69
     1
1001
ACAD
1000
MVIEW
1002
{
1070
    16
1010
0.0
1020
0.0
1030
0.0
1010
0.0
1020
0.0
1030
1.0
1040
0.0
1040
240.8901277942291
1040
63.379714567022802
1040
183.7449289945998
1040
50.0
1040
0.0
1040
0.0
1070
     0
1070
   100
1070
     1
1070
     1
1070
     0
1070
     0
1070
     0
1070
     0
1040
0.0
1040
0.0
1040
0.0
1040
10.0
1040
10.0
1040
10.0
1040
10.0
1070
     0
1002
{
1002
}
1002
}
  0
ENDSEC
  0
EOF
