  0
SECTION
  2
HEADER
  9
$ACADVER
  1
AC1009
  9
$INSBASE
 10
0.0
 20
0.0
 30
0.0
  9
$EXTMIN
 10
-0.0181266115766903
 20
-0.0256335921286564
 30
-0.0000000349181948
  9
$EXTMAX
 10
297.01812937768921
 20
420.02563750380301
 30
0.0000000814935746
  9
$LIMMIN
 10
0.0
 20
0.0
  9
$LIMMAX
 10
297.0
 20
420.0
  9
$ORTHOMODE
 70
     0
  9
$REGENMODE
 70
     1
  9
$FILLMODE
 70
     1
  9
$QTEXTMODE
 70
     0
  9
$MIRRTEXT
 70
     1
  9
$DRAGMODE
 70
     2
  9
$LTSCALE
 40
1.0
  9
$OSMODE
 70
     1
  9
$ATTMODE
 70
     1
  9
$TEXTSIZE
 40
4.0
  9
$TRACEWID
 40
1.0
  9
$TEXTSTYLE
  7
STANDARD
  9
$CLAYER
  8
0
  9
$CELTYPE
  6
BYLAYER
  9
$CECOLOR
 62
   256
  9
$DIMSCALE
 40
1.0
  9
$DIMASZ
 40
2.5
  9
$DIMEXO
 40
0.625
  9
$DIMDLI
 40
3.75
  9
$DIMRND
 40
0.0
  9
$DIMDLE
 40
0.0
  9
$DIMEXE
 40
1.25
  9
$DIMTP
 40
0.0
  9
$DIMTM
 40
0.0
  9
$DIMTXT
 40
2.5
  9
$DIMCEN
 40
2.5
  9
$DIMTSZ
 40
0.0
  9
$DIMTOL
 70
     0
  9
$DIMLIM
 70
     0
  9
$DIMTIH
 70
     0
  9
$DIMTOH
 70
     0
  9
$DIMSE1
 70
     0
  9
$DIMSE2
 70
     0
  9
$DIMTAD
 70
     1
  9
$DIMZIN
 70
     0
  9
$DIMBLK
  1

  9
$DIMASO
 70
     1
  9
$DIMSHO
 70
     1
  9
$DIMPOST
  1

  9
$DIMAPOST
  1

  9
$DIMALT
 70
     0
  9
$DIMALTD
 70
     3
  9
$DIMALTF
 40
0.03937007874016
  9
$DIMLFAC
 40
1.0
  9
$DIMTOFL
 70
     1
  9
$DIMTVP
 40
0.0
  9
$DIMTIX
 70
     0
  9
$DIMSOXD
 70
     0
  9
$DIMSAH
 70
     0
  9
$DIMBLK1
  1

  9
$DIMBLK2
  1

  9
$DIMSTYLE
  2
ISO-25
  9
$DIMCLRD
 70
     0
  9
$DIMCLRE
 70
     0
  9
$DIMCLRT
 70
     0
  9
$DIMTFAC
 40
1.0
  9
$DIMGAP
 40
0.625
  9
$LUNITS
 70
     2
  9
$LUPREC
 70
     4
  9
$SKETCHINC
 40
1.0
  9
$FILLETRAD
 40
0.0
  9
$AUNITS
 70
     0
  9
$AUPREC
 70
     0
  9
$MENU
  1
.
  9
$ELEVATION
 40
0.0
  9
$PELEVATION
 40
0.0
  9
$THICKNESS
 40
0.0
  9
$LIMCHECK
 70
     0
  9
$BLIPMODE
 70
     0
  9
$CHAMFERA
 40
0.0
  9
$CHAMFERB
 40
0.0
  9
$SKPOLY
 70
     0
  9
$TDCREATE
 40
2452194.4037277768
  9
$TDUPDATE
 40
2452306.4363447912
  9
$TDINDWG
 40
1.6655608796000001
  9
$TDUSRTIMER
 40
1.6655608796000001
  9
$USRTIMER
 70
     1
  9
$ANGBASE
 50
0.0
  9
$ANGDIR
 70
     0
  9
$PDMODE
 70
     3
  9
$PDSIZE
 40
0.0
  9
$PLINEWID
 40
0.0
  9
$COORDS
 70
     0
  9
$SPLFRAME
 70
     0
  9
$SPLINETYPE
 70
     6
  9
$SPLINESEGS
 70
     8
  9
$ATTDIA
 70
     0
  9
$ATTREQ
 70
     1
  9
$HANDLING
 70
-16383
  9
$HANDSEED
  5
64CE
  9
$SURFTAB1
 70
     6
  9
$SURFTAB2
 70
     6
  9
$SURFTYPE
 70
     6
  9
$SURFU
 70
     6
  9
$SURFV
 70
     6
  9
$UCSNAME
  2

  9
$UCSORG
 10
0.0
 20
0.0
 30
0.0
  9
$UCSXDIR
 10
1.0
 20
0.0
 30
0.0
  9
$UCSYDIR
 10
0.0
 20
1.0
 30
0.0
  9
$PUCSNAME
  2

  9
$PUCSORG
 10
0.0
 20
0.0
 30
0.0
  9
$PUCSXDIR
 10
1.0
 20
0.0
 30
0.0
  9
$PUCSYDIR
 10
0.0
 20
1.0
 30
0.0
  9
$USERI1
 70
     1
  9
$USERI2
 70
     0
  9
$USERI3
 70
     0
  9
$USERI4
 70
     0
  9
$USERI5
 70
     0
  9
$USERR1
 40
1.0
  9
$USERR2
 40
1.0
  9
$USERR3
 40
0.0
  9
$USERR4
 40
0.0
  9
$USERR5
 40
0.0
  9
$WORLDVIEW
 70
     1
  9
$SHADEDGE
 70
     3
  9
$SHADEDIF
 70
    70
  9
$TILEMODE
 70
     1
  9
$MAXACTVP
 70
    48
  9
$PLIMCHECK
 70
     0
  9
$PEXTMIN
 10
0.1778145603150278
 20
-0.3103504260435557
 30
0.0
  9
$PEXTMAX
 10
198.1326846757197
 20
283.17468584801992
 30
0.0
  9
$PLIMMIN
 10
-5.8737497329711923
 20
-5.8737478256225568
  9
$PLIMMAX
 10
204.18424892425529
 20
291.05224704742432
  9
$UNITMODE
 70
     0
  9
$VISRETAIN
 70
     1
  9
$PLINEGEN
 70
     0
  9
$PSLTSCALE
 70
     1
  0
ENDSEC
  0
SECTION
  2
TABLES
  0
TABLE
  2
VPORT
 70
     3
  0
VPORT
  2
*ACTIVE
 70
     0
 10
0.0
 20
0.0
 11
1.0
 21
1.0
 12
245.2644841732014
 22
210.00000097788879
 13
0.0
 23
0.0
 14
10.0
 24
10.0
 15
10.0
 25
10.0
 16
0.0
 26
0.0
 36
1.0
 17
0.0
 27
0.0
 37
0.0
 40
424.87987277174591
 41
1.750922509225092
 42
50.0
 43
0.0
 44
0.0
 50
0.0
 51
0.0
 71
     0
 72
   100
 73
     1
 74
     3
 75
     0
 76
     0
 77
     0
 78
     0
  0
ENDTAB
  0
TABLE
  2
LTYPE
 70
     1
  0
LTYPE
  2
CONTINUOUS
 70
     0
  3
Solid line
 72
    65
 73
     0
 40
0.0
  0
ENDTAB
  0
TABLE
  2
LAYER
 70
     1
  0
LAYER
  2
0
 70
     0
 62
     7
  6
CONTINUOUS
  0
ENDTAB
  0
TABLE
  2
STYLE
 70
     2
  0
STYLE
  2
STANDARD
 70
     0
 40
0.0
 41
1.0
 50
0.0
 71
     0
 42
4.0
  3
txt.shx
  4
bigfont.shx
  0
STYLE
  2
STANDATDT
 70
     4
 40
0.0
 41
1.0
 50
0.0
 71
     0
 42
4.0
  3
txt.shx
  4
bigfont.shx
  0
ENDTAB
  0
TABLE
  2
VIEW
 70
     0
  0
ENDTAB
  0
TABLE
  2
UCS
 70
     0
  0
ENDTAB
  0
TABLE
  2
APPID
 70
     1
  0
APPID
  2
ACAD
 70
     0
  0
ENDTAB
  0
TABLE
  2
DIMSTYLE
 70
     2
  0
DIMSTYLE
  2
ISO-25
 70
     0
  3

  4

  5

  6

  7

 40
1.0
 41
2.5
 42
0.625
 43
3.75
 44
1.25
 45
0.0
 46
0.0
 47
0.0
 48
0.0
140
2.5
141
2.5
142
0.0
143
0.03937007874016
144
1.0
145
0.0
146
1.0
147
0.625
 71
     0
 72
     0
 73
     0
 74
     0
 75
     0
 76
     0
 77
     1
 78
     8
170
     0
171
     3
172
     1
173
     0
174
     0
175
     0
176
     0
177
     0
178
     0
  0
DIMSTYLE
  2
STANDARD
 70
     0
  3

  4

  5

  6

  7

 40
1.0
 41
0.18
 42
0.0625
 43
0.38
 44
0.18
 45
0.0
 46
0.0
 47
0.0
 48
0.0
140
0.18
141
0.09
142
0.0
143
25.399999999999999
144
1.0
145
0.0
146
1.0
147
0.09
 71
     0
 72
     0
 73
     1
 74
     1
 75
     0
 76
     0
 77
     0
 78
     0
170
     0
171
     2
172
     0
173
     0
174
     0
175
     0
176
     0
177
     0
178
     0
  0
ENDTAB
  0
ENDSEC
  0
SECTION
  2
BLOCKS
  0
BLOCK
  8
0
  2
$MODEL_SPACE
 70
     0
 10
0.0
 20
0.0
 30
0.0
  3
$MODEL_SPACE
  1

  0
ENDBLK
  5
5E51
  8
0
  0
BLOCK
 67
     1
  8
0
  2
$PAPER_SPACE
 70
     0
 10
0.0
 20
0.0
 30
0.0
  3
$PAPER_SPACE
  1

  0
ENDBLK
  5
5E4D
 67
     1
  8
0
  0
ENDSEC
  0
SECTION
  2
ENTITIES
  0
LINE
  5
5E5F
  8
0
 10
20.0
 20
328.82219510669682
 30
0.0
 11
177.0
 21
328.82219510669682
 31
0.0
  0
TEXT
  5
5E60
  8
0
 10
119.40000082807239
 20
317.32219540703898
 30
0.0
 40
3.0
  1
記　　　事
 72
     4
 11
128.00000082807239
 21
318.82219540703909
 31
0.0
  0
TEXT
  5
5E61
  8
0
 10
54.956175280590472
 20
317.82219510669682
 30
0.0
 40
3.0
  1
地質区分
 72
     4
 11
61.756175280590469
 21
319.32219510669688
 31
0.0
  0
TEXT
  5
5E62
  8
0
 10
15.0
 20
329.5398942390143
 30
0.0
 40
3.0
  1
標　　尺
  7
STANDATDT
 72
     4
 11
15.0
 21
322.63989423901432
 31
0.0
  0
TEXT
  5
5E63
  8
0
 10
25.0
 20
325.92219510669679
 30
0.0
 40
3.0
  1
標　高
  7
STANDATDT
 72
     4
 11
25.0
 21
320.82219510669682
 31
0.0
  0
TEXT
  5
5E64
  8
0
 10
45.0
 20
326.2221951066968
 30
0.0
 40
3.0
  1
柱 状 図
  7
STANDATDT
 72
     4
 11
45.0
 21
319.32219510669688
 31
0.0
  0
TEXT
  5
5E65
  8
0
 10
35.0
 20
325.92219510669679
 30
0.0
 40
3.0
  1
深　度
  7
STANDATDT
 72
     4
 11
35.0
 21
320.82219510669682
 31
0.0
  0
LINE
  5
5E66
  8
0
 10
30.0
 20
309.82219510669682
 30
0.0
 11
30.0
 21
328.82219510669682
 31
0.0
  0
LINE
  5
5E67
  8
0
 10
40.0
 20
309.82219510669682
 30
0.0
 11
40.0
 21
328.82219510669682
 31
0.0
  0
LINE
  5
5E68
  8
0
 10
20.0
 20
309.82219510669682
 30
0.0
 11
20.0
 21
334.82219510669682
 31
0.0
  0
LINE
  5
5E69
  8
0
 10
10.0
 20
208.82219510669691
 30
0.0
 11
13.0
 21
208.82219510669691
 31
0.0
  0
LINE
  5
5E6A
  8
0
 10
10.0
 20
212.8221951066968
 30
0.0
 11
11.0
 21
212.8221951066968
 31
0.0
  0
LINE
  5
5E6B
  8
0
 10
10.0
 20
211.8221951066968
 30
0.0
 11
11.0
 21
211.8221951066968
 31
0.0
  0
LINE
  5
5E6C
  8
0
 10
10.0
 20
210.8221951066968
 30
0.0
 11
11.0
 21
210.8221951066968
 31
0.0
  0
LINE
  5
5E6D
  8
0
 10
10.0
 20
209.8221951066968
 30
0.0
 11
11.0
 21
209.8221951066968
 31
0.0
  0
LINE
  5
5E6E
  8
0
 10
10.0
 20
218.8221951066968
 30
0.0
 11
13.0
 21
218.8221951066968
 31
0.0
  0
LINE
  5
5E6F
  8
0
 10
10.0
 20
213.8221951066968
 30
0.0
 11
12.0
 21
213.8221951066968
 31
0.0
  0
LINE
  5
5E70
  8
0
 10
10.0
 20
220.8221951066968
 30
0.0
 11
11.0
 21
220.8221951066968
 31
0.0
  0
LINE
  5
5E71
  8
0
 10
10.0
 20
219.8221951066968
 30
0.0
 11
11.0
 21
219.8221951066968
 31
0.0
  0
LINE
  5
5E72
  8
0
 10
10.0
 20
214.8221951066968
 30
0.0
 11
11.0
 21
214.8221951066968
 31
0.0
  0
LINE
  5
5E73
  8
0
 10
10.0
 20
215.8221951066968
 30
0.0
 11
11.0
 21
215.8221951066968
 31
0.0
  0
LINE
  5
5E74
  8
0
 10
10.0
 20
216.8221951066968
 30
0.0
 11
11.0
 21
216.8221951066968
 31
0.0
  0
LINE
  5
5E75
  8
0
 10
10.0
 20
217.8221951066968
 30
0.0
 11
11.0
 21
217.8221951066968
 31
0.0
  0
LINE
  5
5E76
  8
0
 10
10.0
 20
228.8221951066968
 30
0.0
 11
13.0
 21
228.8221951066968
 31
0.0
  0
LINE
  5
5E77
  8
0
 10
10.0
 20
223.8221951066968
 30
0.0
 11
12.0
 21
223.8221951066968
 31
0.0
  0
LINE
  5
5E78
  8
0
 10
10.0
 20
229.82219510669691
 30
0.0
 11
11.0
 21
229.82219510669691
 31
0.0
  0
LINE
  5
5E79
  8
0
 10
10.0
 20
222.8221951066968
 30
0.0
 11
11.0
 21
222.8221951066968
 31
0.0
  0
LINE
  5
5E7A
  8
0
 10
10.0
 20
221.8221951066968
 30
0.0
 11
11.0
 21
221.8221951066968
 31
0.0
  0
LINE
  5
5E7B
  8
0
 10
10.0
 20
224.8221951066968
 30
0.0
 11
11.0
 21
224.8221951066968
 31
0.0
  0
LINE
  5
5E7C
  8
0
 10
10.0
 20
225.8221951066968
 30
0.0
 11
11.0
 21
225.8221951066968
 31
0.0
  0
LINE
  5
5E7D
  8
0
 10
10.0
 20
226.8221951066968
 30
0.0
 11
11.0
 21
226.8221951066968
 31
0.0
  0
LINE
  5
5E7E
  8
0
 10
10.0
 20
227.82219510669691
 30
0.0
 11
11.0
 21
227.82219510669691
 31
0.0
  0
LINE
  5
5E7F
  8
0
 10
10.0
 20
233.82219510669691
 30
0.0
 11
12.0
 21
233.82219510669691
 31
0.0
  0
LINE
  5
5E80
  8
0
 10
10.0
 20
232.8221951066968
 30
0.0
 11
11.0
 21
232.8221951066968
 31
0.0
  0
LINE
  5
5E81
  8
0
 10
10.0
 20
234.8221951066968
 30
0.0
 11
11.0
 21
234.8221951066968
 31
0.0
  0
LINE
  5
5E82
  8
0
 10
10.0
 20
235.82219510669691
 30
0.0
 11
11.0
 21
235.82219510669691
 31
0.0
  0
LINE
  5
5E83
  8
0
 10
10.0
 20
236.8221951066968
 30
0.0
 11
11.0
 21
236.8221951066968
 31
0.0
  0
LINE
  5
5E84
  8
0
 10
10.0
 20
237.8221951066968
 30
0.0
 11
11.0
 21
237.8221951066968
 31
0.0
  0
LINE
  5
5E85
  8
0
 10
10.0
 20
231.82219510669691
 30
0.0
 11
11.0
 21
231.82219510669691
 31
0.0
  0
LINE
  5
5E86
  8
0
 10
10.0
 20
230.8221951066968
 30
0.0
 11
11.0
 21
230.8221951066968
 31
0.0
  0
LINE
  5
5E87
  8
0
 10
10.0
 20
238.8221951066968
 30
0.0
 11
13.0
 21
238.8221951066968
 31
0.0
  0
LINE
  5
5E88
  8
0
 10
10.0
 20
243.8221951066968
 30
0.0
 11
12.0
 21
243.8221951066968
 31
0.0
  0
LINE
  5
5E89
  8
0
 10
10.0
 20
244.8221951066968
 30
0.0
 11
11.0
 21
244.8221951066968
 31
0.0
  0
LINE
  5
5E8A
  8
0
 10
10.0
 20
245.8221951066968
 30
0.0
 11
11.0
 21
245.8221951066968
 31
0.0
  0
LINE
  5
5E8B
  8
0
 10
10.0
 20
242.8221951066968
 30
0.0
 11
11.0
 21
242.8221951066968
 31
0.0
  0
LINE
  5
5E8C
  8
0
 10
10.0
 20
241.8221951066968
 30
0.0
 11
11.0
 21
241.8221951066968
 31
0.0
  0
LINE
  5
5E8D
  8
0
 10
10.0
 20
240.8221951066968
 30
0.0
 11
11.0
 21
240.8221951066968
 31
0.0
  0
LINE
  5
5E8E
  8
0
 10
10.0
 20
239.8221951066968
 30
0.0
 11
11.0
 21
239.8221951066968
 31
0.0
  0
LINE
  5
5E8F
  8
0
 10
10.0
 20
248.8221951066968
 30
0.0
 11
13.0
 21
248.8221951066968
 31
0.0
  0
LINE
  5
5E90
  8
0
 10
10.0
 20
253.8221951066968
 30
0.0
 11
12.0
 21
253.8221951066968
 31
0.0
  0
LINE
  5
5E91
  8
0
 10
10.0
 20
252.82219510669691
 30
0.0
 11
11.0
 21
252.82219510669691
 31
0.0
  0
LINE
  5
5E92
  8
0
 10
10.0
 20
251.8221951066968
 30
0.0
 11
11.0
 21
251.8221951066968
 31
0.0
  0
LINE
  5
5E93
  8
0
 10
10.0
 20
250.8221951066968
 30
0.0
 11
11.0
 21
250.8221951066968
 31
0.0
  0
LINE
  5
5E94
  8
0
 10
10.0
 20
249.8221951066968
 30
0.0
 11
11.0
 21
249.8221951066968
 31
0.0
  0
LINE
  5
5E95
  8
0
 10
10.0
 20
246.8221951066968
 30
0.0
 11
11.0
 21
246.8221951066968
 31
0.0
  0
LINE
  5
5E96
  8
0
 10
10.0
 20
247.8221951066968
 30
0.0
 11
11.0
 21
247.8221951066968
 31
0.0
  0
TEXT
  5
5E97
  8
0
 10
32.25
 20
311.65552844003008
 30
0.0
 40
2.5
  1
(ｍ)
 72
     1
 11
35.0
 21
311.32219510669682
 31
0.0
 73
     1
  0
LINE
  5
5E98
  8
0
 10
10.0
 20
258.82219510669688
 30
0.0
 11
13.0
 21
258.82219510669688
 31
0.0
  0
LINE
  5
5E99
  8
0
 10
10.0
 20
261.82219510669682
 30
0.0
 11
11.0
 21
261.82219510669682
 31
0.0
  0
LINE
  5
5E9A
  8
0
 10
10.0
 20
260.82219510669688
 30
0.0
 11
11.0
 21
260.82219510669688
 31
0.0
  0
LINE
  5
5E9B
  8
0
 10
10.0
 20
259.82219510669682
 30
0.0
 11
11.0
 21
259.82219510669682
 31
0.0
  0
LINE
  5
5E9C
  8
0
 10
10.0
 20
254.82219510669691
 30
0.0
 11
11.0
 21
254.82219510669691
 31
0.0
  0
LINE
  5
5E9D
  8
0
 10
10.0
 20
255.8221951066968
 30
0.0
 11
11.0
 21
255.8221951066968
 31
0.0
  0
LINE
  5
5E9E
  8
0
 10
10.0
 20
256.82219510669688
 30
0.0
 11
11.0
 21
256.82219510669688
 31
0.0
  0
LINE
  5
5E9F
  8
0
 10
10.0
 20
257.82219510669682
 30
0.0
 11
11.0
 21
257.82219510669682
 31
0.0
  0
LINE
  5
5EA0
  8
0
 10
10.0
 20
268.82219510669682
 30
0.0
 11
13.0
 21
268.82219510669682
 31
0.0
  0
LINE
  5
5EA1
  8
0
 10
10.0
 20
263.82219510669682
 30
0.0
 11
12.0
 21
263.82219510669682
 31
0.0
  0
LINE
  5
5EA2
  8
0
 10
10.0
 20
270.82219510669682
 30
0.0
 11
11.0
 21
270.82219510669682
 31
0.0
  0
LINE
  5
5EA3
  8
0
 10
10.0
 20
269.82219510669682
 30
0.0
 11
11.0
 21
269.82219510669682
 31
0.0
  0
LINE
  5
5EA4
  8
0
 10
10.0
 20
264.82219510669682
 30
0.0
 11
11.0
 21
264.82219510669682
 31
0.0
  0
LINE
  5
5EA5
  8
0
 10
10.0
 20
265.82219510669682
 30
0.0
 11
11.0
 21
265.82219510669682
 31
0.0
  0
LINE
  5
5EA6
  8
0
 10
10.0
 20
266.82219510669682
 30
0.0
 11
11.0
 21
266.82219510669682
 31
0.0
  0
LINE
  5
5EA7
  8
0
 10
10.0
 20
267.82219510669682
 30
0.0
 11
11.0
 21
267.82219510669682
 31
0.0
  0
LINE
  5
5EA8
  8
0
 10
10.0
 20
262.82219510669682
 30
0.0
 11
11.0
 21
262.82219510669682
 31
0.0
  0
LINE
  5
5EA9
  8
0
 10
10.0
 20
278.82219510669682
 30
0.0
 11
13.0
 21
278.82219510669682
 31
0.0
  0
LINE
  5
5EAA
  8
0
 10
10.0
 20
273.82219510669682
 30
0.0
 11
12.0
 21
273.82219510669682
 31
0.0
  0
LINE
  5
5EAB
  8
0
 10
10.0
 20
275.82219510669682
 30
0.0
 11
11.0
 21
275.82219510669682
 31
0.0
  0
LINE
  5
5EAC
  8
0
 10
10.0
 20
276.82219510669682
 30
0.0
 11
11.0
 21
276.82219510669682
 31
0.0
  0
LINE
  5
5EAD
  8
0
 10
10.0
 20
277.82219510669688
 30
0.0
 11
11.0
 21
277.82219510669688
 31
0.0
  0
LINE
  5
5EAE
  8
0
 10
10.0
 20
272.82219510669682
 30
0.0
 11
11.0
 21
272.82219510669682
 31
0.0
  0
LINE
  5
5EAF
  8
0
 10
10.0
 20
271.82219510669682
 30
0.0
 11
11.0
 21
271.82219510669682
 31
0.0
  0
LINE
  5
5EB0
  8
0
 10
10.0
 20
274.82219510669682
 30
0.0
 11
11.0
 21
274.82219510669682
 31
0.0
  0
LINE
  5
5EB1
  8
0
 10
10.0
 20
283.82219510669688
 30
0.0
 11
12.0
 21
283.82219510669688
 31
0.0
  0
LINE
  5
5EB2
  8
0
 10
10.0
 20
286.82219510669682
 30
0.0
 11
11.0
 21
286.82219510669682
 31
0.0
  0
LINE
  5
5EB3
  8
0
 10
10.0
 20
282.82219510669682
 30
0.0
 11
11.0
 21
282.82219510669682
 31
0.0
  0
LINE
  5
5EB4
  8
0
 10
10.0
 20
281.82219510669682
 30
0.0
 11
11.0
 21
281.82219510669682
 31
0.0
  0
LINE
  5
5EB5
  8
0
 10
10.0
 20
280.82219510669682
 30
0.0
 11
11.0
 21
280.82219510669682
 31
0.0
  0
LINE
  5
5EB6
  8
0
 10
10.0
 20
279.82219510669688
 30
0.0
 11
11.0
 21
279.82219510669688
 31
0.0
  0
LINE
  5
5EB7
  8
0
 10
10.0
 20
284.82219510669682
 30
0.0
 11
11.0
 21
284.82219510669682
 31
0.0
  0
LINE
  5
5EB8
  8
0
 10
10.0
 20
285.82219510669688
 30
0.0
 11
11.0
 21
285.82219510669688
 31
0.0
  0
LINE
  5
5EB9
  8
0
 10
10.0
 20
288.82219510669682
 30
0.0
 11
13.0
 21
288.82219510669682
 31
0.0
  0
LINE
  5
5EBA
  8
0
 10
10.0
 20
293.82219510669682
 30
0.0
 11
12.0
 21
293.82219510669682
 31
0.0
  0
LINE
  5
5EBB
  8
0
 10
10.0
 20
292.82219510669682
 30
0.0
 11
11.0
 21
292.82219510669682
 31
0.0
  0
LINE
  5
5EBC
  8
0
 10
10.0
 20
291.82219510669682
 30
0.0
 11
11.0
 21
291.82219510669682
 31
0.0
  0
LINE
  5
5EBD
  8
0
 10
10.0
 20
290.82219510669682
 30
0.0
 11
11.0
 21
290.82219510669682
 31
0.0
  0
LINE
  5
5EBE
  8
0
 10
10.0
 20
289.82219510669682
 30
0.0
 11
11.0
 21
289.82219510669682
 31
0.0
  0
LINE
  5
5EBF
  8
0
 10
10.0
 20
294.82219510669688
 30
0.0
 11
11.0
 21
294.82219510669688
 31
0.0
  0
LINE
  5
5EC0
  8
0
 10
10.0
 20
287.82219510669682
 30
0.0
 11
11.0
 21
287.82219510669682
 31
0.0
  0
LINE
  5
5EC1
  8
0
 10
10.0
 20
298.82219510669682
 30
0.0
 11
13.0
 21
298.82219510669682
 31
0.0
  0
LINE
  5
5EC2
  8
0
 10
10.0
 20
299.82219510669682
 30
0.0
 11
11.0
 21
299.82219510669682
 31
0.0
  0
LINE
  5
5EC3
  8
0
 10
10.0
 20
300.82219510669682
 30
0.0
 11
11.0
 21
300.82219510669682
 31
0.0
  0
LINE
  5
5EC4
  8
0
 10
10.0
 20
301.82219510669682
 30
0.0
 11
11.0
 21
301.82219510669682
 31
0.0
  0
LINE
  5
5EC5
  8
0
 10
10.0
 20
302.82219510669688
 30
0.0
 11
11.0
 21
302.82219510669688
 31
0.0
  0
LINE
  5
5EC6
  8
0
 10
10.0
 20
296.82219510669682
 30
0.0
 11
11.0
 21
296.82219510669682
 31
0.0
  0
LINE
  5
5EC7
  8
0
 10
10.0
 20
297.82219510669682
 30
0.0
 11
11.0
 21
297.82219510669682
 31
0.0
  0
LINE
  5
5EC8
  8
0
 10
10.0
 20
295.82219510669682
 30
0.0
 11
11.0
 21
295.82219510669682
 31
0.0
  0
TEXT
  5
5EC9
  8
0
 10
12.25
 20
311.65552844003008
 30
0.0
 40
2.5
  1
(ｍ)
 72
     1
 11
15.0
 21
311.32219510669682
 31
0.0
 73
     1
  0
LINE
  5
5ECA
  8
0
 10
10.0
 20
303.82219510669682
 30
0.0
 11
12.0
 21
303.82219510669682
 31
0.0
  0
LINE
  5
5ECB
  8
0
 10
10.0
 20
307.82219510669682
 30
0.0
 11
11.0
 21
307.82219510669682
 31
0.0
  0
LINE
  5
5ECC
  8
0
 10
10.0
 20
306.82219510669688
 30
0.0
 11
11.0
 21
306.82219510669688
 31
0.0
  0
LINE
  5
5ECD
  8
0
 10
10.0
 20
305.82219510669682
 30
0.0
 11
11.0
 21
305.82219510669682
 31
0.0
  0
LINE
  5
5ECE
  8
0
 10
10.0
 20
304.82219510669688
 30
0.0
 11
11.0
 21
304.82219510669688
 31
0.0
  0
TEXT
  5
5ECF
  8
0
 10
22.25
 20
311.65552844003008
 30
0.0
 40
2.5
  1
(ｍ)
 72
     1
 11
25.0
 21
311.32219510669682
 31
0.0
 73
     1
  0
TEXT
  5
5ED0
  8
0
 10
78.0
 20
326.2221951066968
 30
0.0
 40
3.0
  1
色　　調
  7
STANDATDT
 72
     4
 11
78.0
 21
319.32219510669688
 31
0.0
  0
TEXT
  5
5ED1
  8
0
 10
87.0
 20
326.32219510669682
 30
0.0
 40
3.0
  1
硬　　軟
  7
STANDATDT
 72
     4
 11
87.0
 21
319.32219510669688
 31
0.0
  0
LINE
  5
5ED2
  8
0
 10
106.0000008280724
 20
309.8221954070392
 30
0.0
 11
106.0000008280724
 21
328.8221954070392
 31
0.0
  0
LINE
  5
5ED3
  8
0
 10
83.0
 20
309.82219510669682
 30
0.0
 11
83.0
 21
328.82219510669682
 31
0.0
  0
LINE
  5
5ED4
  8
0
 10
73.0
 20
309.82219510669682
 30
0.0
 11
73.0
 21
328.82219510669682
 31
0.0
  0
TEXT
  5
5ED5
  8
0
 10
65.699999999999989
 20
330.2221951066968
 30
0.0
 40
3.0
  1
地　　　　　　　　　　　　　　　　　質
 72
     1
 11
99.500000000000014
 21
329.82219510669688
 31
0.0
 73
     1
  0
LINE
  5
5ED6
  8
0
 10
177.0
 20
328.82219510669682
 30
0.0
 11
251.0
 21
328.82219510669682
 31
0.0
  0
LINE
  5
5ED7
  8
0
 10
176.0
 20
309.82219510669682
 30
0.0
 11
176.0
 21
334.82219510669682
 31
0.0
  0
LINE
  5
5ED8
  8
0
 10
177.0
 20
309.82219510669682
 30
0.0
 11
177.0
 21
334.82219510669682
 31
0.0
  0
LINE
  5
5ED9
  8
0
 10
226.0
 20
309.82219510669682
 30
0.0
 11
225.9999999999998
 21
323.82219510669682
 31
0.0
  0
LINE
  5
5EDA
  8
0
 10
176.0
 20
309.82219510669682
 30
0.0
 11
176.0
 21
328.82219510669682
 31
0.0
  0
LINE
  5
5EDB
  8
0
 10
213.0
 20
323.82193503293342
 30
0.0
 11
213.0
 21
309.82193503293342
 31
0.0
  0
LINE
  5
5EDC
  8
0
 10
251.0
 20
309.82219510669682
 30
0.0
 11
251.0
 21
334.82219510669682
 31
0.0
  0
LINE
  5
5EDD
  8
0
 10
261.0
 20
309.82219510669682
 30
0.0
 11
261.0
 21
334.82219510669682
 31
0.0
  0
TEXT
  5
5EDE
  8
0
 10
16.997089773706328
 20
257.82219510669682
 30
0.0
 40
2.0
  1
5
 72
     2
 11
18.330423107039671
 21
258.82219510669688
 31
0.0
 73
     2
  0
TEXT
  5
5EDF
  8
0
 10
16.997089773706328
 20
267.82219510669682
 30
0.0
 40
2.0
  1
4
 72
     2
 11
18.330423107039671
 21
268.82219510669682
 31
0.0
 73
     2
  0
TEXT
  5
5EE0
  8
0
 10
16.997089773706328
 20
277.82219510669682
 30
0.0
 40
2.0
  1
3
 72
     2
 11
18.330423107039671
 21
278.82219510669682
 31
0.0
 73
     2
  0
TEXT
  5
5EE1
  8
0
 10
16.997089773706328
 20
287.82219510669682
 30
0.0
 40
2.0
  1
2
 72
     2
 11
18.330423107039671
 21
288.82219510669682
 31
0.0
 73
     2
  0
TEXT
  5
5EE2
  8
0
 10
17.663756440373
 20
297.82219510669682
 30
0.0
 40
2.0
  1
1
 72
     2
 11
18.330423107039671
 21
298.82219510669682
 31
0.0
 73
     2
  0
TEXT
  5
5EE3
  8
0
 10
16.997089773706328
 20
247.8221951066968
 30
0.0
 40
2.0
  1
6
 72
     2
 11
18.330423107039671
 21
248.8221951066968
 31
0.0
 73
     2
  0
TEXT
  5
5EE4
  8
0
 10
16.997089773706328
 20
237.8221951066968
 30
0.0
 40
2.0
  1
7
 72
     2
 11
18.330423107039671
 21
238.8221951066968
 31
0.0
 73
     2
  0
TEXT
  5
5EE5
  8
0
 10
16.997089773706328
 20
227.8221951066968
 30
0.0
 40
2.0
  1
8
 72
     2
 11
18.330423107039671
 21
228.8221951066968
 31
0.0
 73
     2
  0
TEXT
  5
5EE6
  8
0
 10
16.997089773706328
 20
217.8221951066968
 30
0.0
 40
2.0
  1
9
 72
     2
 11
18.330423107039671
 21
218.8221951066968
 31
0.0
 73
     2
  0
TEXT
  5
5EE7
  8
0
 10
15.99708977370633
 20
207.8221951066968
 30
0.0
 40
2.0
  1
10
 72
     2
 11
18.330423107039671
 21
208.82219510669691
 31
0.0
 73
     2
  0
TEXT
  5
5EE8
  8
0
 10
198.4568925256375
 20
362.07219486235692
 30
0.0
 40
3.5
  1
～
 11
198.4568925256375
 21
363.82219486235692
 31
0.0
 73
     2
  0
LINE
  5
5EE9
  8
0
 10
231.0
 20
309.82219510669682
 30
0.0
 11
231.0
 21
323.82219510669682
 31
0.0
  0
LINE
  5
5EEA
  8
0
 10
256.0
 20
309.82219510669682
 30
0.0
 11
256.0
 21
334.82219510669682
 31
0.0
  0
LINE
  5
5EEB
  8
0
 10
50.0
 20
309.82219510669682
 30
0.0
 11
50.0
 21
328.82219510669682
 31
0.0
  0
LINE
  5
5EEC
  8
0
 10
205.0
 20
323.82193503293342
 30
0.0
 11
205.0
 21
309.82193503293342
 31
0.0
  0
LINE
  5
5EED
  8
0
 10
197.0
 20
323.82219510669682
 30
0.0
 11
241.0
 21
323.82219510669682
 31
0.0
  0
TEXT
  5
5EEE
  8
0
 10
98.540399734216635
 20
326.32219540703898
 30
0.0
 40
3.0
  1
風　　化
  7
STANDATDT
 72
     4
 11
98.540399734216635
 21
319.32219540703898
 31
0.0
  0
TEXT
  5
5EEF
  8
0
 10
93.540399734216635
 20
326.52219540703908
 30
0.0
 40
3.0
  1
コア形状
  7
STANDATDT
 72
     4
 11
93.540399734216635
 21
319.32219540703898
 31
0.0
  0
LINE
  5
5EF0
  8
0
 10
96.000000828072416
 20
309.8221954070392
 30
0.0
 11
96.000000828072416
 21
328.8221954070392
 31
0.0
  0
LINE
  5
5EF1
  8
0
 10
91.000000828072416
 20
309.8221954070392
 30
0.0
 11
91.000000828072416
 21
328.8221954070392
 31
0.0
  0
TEXT
  5
5EF2
  8
0
 10
103.54039973421661
 20
326.22219540703901
 30
0.0
 40
3.0
  1
変　　質
  7
STANDATDT
 72
     4
 11
103.54039973421661
 21
319.32219540703898
 31
0.0
  0
LINE
  5
5EF3
  8
0
 10
101.0000008280724
 20
309.8221954070392
 30
0.0
 11
101.0000008280724
 21
328.8221954070392
 31
0.0
  0
LINE
  5
5EF4
  8
0
 10
187.0
 20
309.82219510669682
 30
0.0
 11
187.0
 21
328.82219510669682
 31
0.0
  0
LINE
  5
5EF5
  8
0
 10
197.0
 20
309.82219510669682
 30
0.0
 11
197.0
 21
328.82219510669682
 31
0.0
  0
LINE
  5
5EF6
  8
0
 10
221.0
 20
309.82219510669682
 30
0.0
 11
220.99999999999989
 21
328.82219510669682
 31
0.0
  0
TEXT
  5
5EF7
  8
0
 10
161.33333333333329
 20
320.7969504628561
 30
0.0
 40
2.5
  1
貫入試験
 72
     1
 11
167.0
 21
320.46361712952279
 31
0.0
 73
     1
  0
TEXT
  5
5EF8
  8
0
 10
161.33333333333329
 20
324.38087366588962
 30
0.0
 40
2.5
  1
標　　準
 72
     1
 11
167.0
 21
324.04754033255631
 31
0.0
 73
     1
  0
LINE
  5
5EF9
  8
0
 10
158.0
 20
318.82219540703909
 30
0.0
 11
176.0
 21
318.82219540703909
 31
0.0
  0
TEXT
  5
5EFA
  8
0
 10
156.10491679478719
 20
326.62088380885928
 30
0.0
 40
3.0
  1
コ　ア
  7
STANDATDT
 72
     4
 11
156.10491679478719
 21
321.32088380885932
 31
0.0
  0
TEXT
  5
5EFB
  8
0
 10
151.96766895965641
 20
326.4208838088594
 30
0.0
 40
3.0
  1
採取率
  7
STANDATDT
 72
     4
 11
151.96766895965641
 21
321.32088380885932
 31
0.0
  0
LINE
  5
5EFC
  8
0
 10
150.00000082807239
 20
309.8221954070392
 30
0.0
 11
150.00000082807239
 21
328.8221954070392
 31
0.0
  0
TEXT
  5
5EFD
  8
0
 10
151.25000082807239
 20
310.782917659492
 30
0.0
 40
2.5
  1
(％)
 72
     1
 11
154.00000082807239
 21
310.44958432615857
 31
0.0
 73
     1
  0
LINE
  5
5EFE
  8
0
 10
158.00000082807239
 20
309.8221954070392
 30
0.0
 11
158.00000082807239
 21
328.8221954070392
 31
0.0
  0
LINE
  5
5EFF
  8
0
 10
158.00000082807239
 20
309.8221954070392
 30
0.0
 11
158.00000082807239
 21
328.8221954070392
 31
0.0
  0
TEXT
  5
5F00
  8
0
 10
164.5
 20
317.72219540703912
 30
0.0
 40
3.0
  1
区間
  7
STANDATDT
 72
     4
 11
164.5
 21
314.3221954070392
 31
0.0
  0
TEXT
  5
5F01
  8
0
 10
173.5
 20
317.72219540703912
 30
0.0
 40
3.0
  1
Ｎ値
  7
STANDATDT
 72
     4
 11
173.5
 21
314.3221954070392
 31
0.0
  0
LINE
  5
5F02
  8
0
 10
171.0
 20
309.8221954070392
 30
0.0
 11
171.0
 21
318.82219540703909
 31
0.0
  0
TEXT
  5
5F03
  8
0
 10
109.6605321241933
 20
344.2461951106049
 30
0.0
 40
1.8
  1
90゜
 72
     1
 11
111.5505321241933
 21
345.14619511060482
 31
0.0
 73
     2
  0
TEXT
  5
5F04
  8
0
 10
101.5833333333333
 20
370.57219510669671
 30
0.0
 40
2.5
  1
調査位置
 72
     1
 11
107.25
 21
371.82219510669671
 31
0.0
 73
     2
  0
TEXT
  5
5F05
  8
0
 10
101.5833333333333
 20
354.57219510669671
 30
0.0
 40
2.5
  1
主任技師
 72
     1
 11
107.25
 21
355.82219510669671
 31
0.0
 73
     2
  0
POLYLINE
  5
5F06
  8
0
 66
     1
 10
0.0
 20
0.0
 30
0.0
 70
     1
  0
VERTEX
  5
64BF
  8
0
 10
288.0
 20
335.82219510669688
 30
0.0
  0
VERTEX
  5
64C0
  8
0
 10
10.0
 20
335.82219510669688
 30
0.0
  0
VERTEX
  5
64C1
  8
0
 10
10.0
 20
375.82219510669671
 30
0.0
  0
VERTEX
  5
64C2
  8
0
 10
288.0
 20
375.82219510669671
 30
0.0
  0
SEQEND
  5
64C3
  8
0
  0
LINE
  5
5F0C
  8
0
 10
52.0
 20
388.32219510669671
 30
0.0
 11
207.0
 21
388.32219510669671
 31
0.0
  0
LINE
  5
5F0D
  8
0
 10
52.0
 20
377.82219510669688
 30
0.0
 11
207.0
 21
377.82219510669671
 31
0.0
  0
LINE
  5
5F0E
  8
0
 10
10.0
 20
351.82219510669671
 30
0.0
 11
288.0
 21
351.82219510669671
 31
0.0
  0
LINE
  5
5F0F
  8
0
 10
10.0
 20
359.82219510669671
 30
0.0
 11
288.0
 21
359.82219510669671
 31
0.0
  0
LINE
  5
5F10
  8
0
 10
10.0
 20
367.82219510669671
 30
0.0
 11
288.0
 21
367.82219510669671
 31
0.0
  0
LINE
  5
5F11
  8
0
 10
103.2499999999999
 20
343.82219510669671
 30
0.0
 11
103.2499999999999
 21
338.11757770119669
 31
0.0
  0
TEXT
  5
5F12
  8
0
 10
104.5291707453859
 20
337.06676263274312
 30
0.0
 40
1.8
  1
南
 72
     1
 11
105.3691707453859
 21
337.9667626327431
 31
0.0
 73
     2
  0
TEXT
  5
5F13
  8
0
 10
98.683980293036015
 20
337.06676263274312
 30
0.0
 40
1.8
  1
180゜
 72
     1
 11
101.173980293036
 21
337.9667626327431
 31
0.0
 73
     2
  0
LINE
  5
5F14
  8
0
 10
93.0
 20
335.82219510669688
 30
0.0
 11
93.0
 21
351.82219510669671
 31
0.0
  0
LINE
  5
5F15
  8
0
 10
85.0
 20
335.82219510669688
 30
0.0
 11
85.0
 21
351.82219510669671
 31
0.0
  0
TEXT
  5
5F16
  8
0
 10
89.0
 20
349.57219510669671
 30
0.0
 40
2.5
  1
方　　向
  7
STANDATDT
 72
     1
 11
89.0
 21
343.82219510669671
 31
0.0
 73
     2
  0
TEXT
  5
5F17
  8
0
 10
74.455926910257062
 20
336.6093226440621
 30
0.0
 40
1.8
  1
0゜
 72
     1
 11
75.445926910257043
 21
337.50932264406208
 31
0.0
 73
     2
  0
LINE
  5
5F18
  8
0
 10
75.500000223754114
 20
343.82219510669671
 30
0.0
 11
75.500000223754114
 21
338.11757770119669
 31
0.0
  0
LINE
  5
5F19
  8
0
 10
69.0
 20
335.82219510669688
 30
0.0
 11
69.0
 21
351.82219510669671
 31
0.0
  0
TEXT
  5
5F1A
  8
0
 10
64.5
 20
349.57219510669671
 30
0.0
 40
2.5
  1
角　　度
  7
STANDATDT
 72
     1
 11
64.5
 21
343.82219510669671
 31
0.0
 73
     2
  0
TEXT
  5
5F1B
  8
0
 10
55.54753692108374
 20
338.44323183856687
 30
0.0
 40
3.0
  1
m
 72
     1
 11
56.547536921083747
 21
339.94323183856687
 31
0.0
 73
     2
  0
LINE
  5
5F1C
  8
0
 10
60.0
 20
335.82219510669688
 30
0.0
 11
60.0
 21
351.82219510669671
 31
0.0
  0
LINE
  5
5F1D
  8
0
 10
36.0
 20
335.82219510669688
 30
0.0
 11
36.0
 21
375.82219510669671
 31
0.0
  0
TEXT
  5
5F1E
  8
0
 10
12.83333333333333
 20
338.57219510669682
 30
0.0
 40
2.5
  1
総　掘　進　長
 72
     1
 11
23.0
 21
339.82219510669682
 31
0.0
 73
     2
  0
TEXT
  5
5F1F
  8
0
 10
16.4163855562417
 20
370.57219510669671
 30
0.0
 40
2.5
  1
ー
 72
     1
 11
17.583052222908371
 21
371.82219510669671
 31
0.0
 73
     2
  0
TEXT
  5
5F20
  8
0
 10
12.916666666666661
 20
362.57219510669671
 30
0.0
 40
2.5
  1
発  注  機  関
 72
     1
 11
23.0
 21
363.82219510669671
 31
0.0
 73
     2
  0
TEXT
  5
5F21
  8
0
 10
12.83333333333333
 20
346.57219510669671
 30
0.0
 40
2.5
  1
孔  口  標  高
 72
     1
 11
23.0
 21
347.82219510669671
 31
0.0
 73
     2
  0
TEXT
  5
5F22
  8
0
 10
12.916666666666661
 20
354.57219510669671
 30
0.0
 40
2.5
  1
調 査 業 者 名
 72
     1
 11
23.0
 21
355.82219510669671
 31
0.0
 73
     2
  0
LINE
  5
5F23
  8
0
 10
10.0
 20
343.82219510669671
 30
0.0
 11
60.0
 21
343.82219510669671
 31
0.0
  0
TEXT
  5
5F24
  8
0
 10
12.44609981837675
 20
370.57219510669671
 30
0.0
 40
2.5
  1
ボ
 72
     1
 11
13.69609981837675
 21
371.82219510669671
 31
0.0
 73
     2
  0
TEXT
  5
5F25
  8
0
 10
50.39173740336728
 20
352.9155052150295
 30
0.0
 40
2.0
  1
（          　  　　　　　   ）
 72
     1
 11
68.658404070033953
 21
353.9155052150295
 31
0.0
 73
     2
  0
TEXT
  5
5F26
  8
0
 10
55.241122999872083
 20
380.03922573896853
 30
0.0
 40
4.0
  1
事業・工事名
 72
     1
 11
68.97445633320541
 21
382.03922573896853
 31
0.0
 73
     2
  0
TEXT
  5
5F27
  8
0
 10
55.241122999872083
 20
390.53922573896853
 30
0.0
 40
4.0
  1
調   査   名
 72
     1
 11
68.97445633320541
 21
392.53922573896853
 31
0.0
 73
     2
  0
TEXT
  5
5F28
  8
0
 10
27.910576103169898
 20
370.57219510669671
 30
0.0
 40
2.5
  1
グ
 72
     1
 11
29.24390943650323
 21
371.82219510669671
 31
0.0
 73
     2
  0
TEXT
  5
5F29
  8
0
 10
32.047528507701507
 20
370.57219510669671
 30
0.0
 40
2.5
  1
名
 72
     1
 11
33.13086184103485
 21
371.82219510669671
 31
0.0
 73
     2
  0
TEXT
  5
5F2A
  8
0
 10
24.1069570319716
 20
370.57219510669671
 30
0.0
 40
2.5
  1
ン
 72
     1
 11
25.3569570319716
 21
371.82219510669671
 31
0.0
 73
     2
  0
TEXT
  5
5F2B
  8
0
 10
20.30333796077332
 20
370.57219510669671
 30
0.0
 40
2.5
  1
リ
 72
     1
 11
21.470004627439991
 21
371.82219510669671
 31
0.0
 73
     2
  0
TEXT
  5
5F2C
  8
0
 10
43.956225062303801
 20
352.9155052150295
 30
0.0
 40
2.0
  1
電話
 72
     1
 11
46.089558395637141
 21
353.9155052150295
 31
0.0
 73
     2
  0
TEXT
  5
5F2D
  8
0
 10
55.54753692108374
 20
346.44323183856687
 30
0.0
 40
3.0
  1
m
 72
     1
 11
56.547536921083747
 21
347.94323183856687
 31
0.0
 73
     2
  0
LINE
  5
5F2E
  8
0
 10
99.0
 20
375.82219510669671
 30
0.0
 11
99.0
 21
367.82219510669671
 31
0.0
  0
TEXT
  5
5F2F
  8
0
 10
72.311722501059194
 20
349.7696716593972
 30
0.0
 40
1.8
  1
180゜
 72
     1
 11
74.801722501059203
 21
350.66967165939712
 31
0.0
 73
     2
  0
LINE
  5
5F30
  8
0
 10
75.500000223754114
 20
343.82219510669671
 30
0.0
 11
81.204617629254344
 21
343.82219510669671
 31
0.0
  0
ARC
  5
5F31
  8
0
 10
75.500000223754114
 20
343.82219510669671
 30
0.0
 40
4.5
 50
270.0
 51
90.0
  0
LINE
  5
5F32
  8
0
 10
75.500000223754114
 20
343.82219510669671
 30
0.0
 11
75.500000223754114
 21
349.52681251219701
 31
0.0
  0
TEXT
  5
5F33
  8
0
 10
72.777047559151612
 20
345.69492012292642
 30
0.0
 40
1.8
  1
上
 72
     1
 11
73.617047559151615
 21
346.5949201229264
 31
0.0
 73
     2
  0
TEXT
  5
5F34
  8
0
 10
72.777047559151612
 20
341.00161034207059
 30
0.0
 40
1.8
  1
下
 72
     1
 11
73.617047559151615
 21
341.90161034207063
 31
0.0
 73
     2
  0
TEXT
  5
5F35
  8
0
 10
81.287348056396567
 20
344.7246310108855
 30
0.0
 40
1.8
  1
90゜
 72
     1
 11
83.177348056396568
 21
345.62463101088542
 31
0.0
 73
     2
  0
LINE
  5
5F36
  8
0
 10
99.0
 20
359.82219510669671
 30
0.0
 11
99.0
 21
351.82219510669671
 31
0.0
  0
TEXT
  5
5F37
  8
0
 10
100.6249312824494
 20
349.26428276230968
 30
0.0
 40
1.8
  1
北
 72
     1
 11
101.4649312824493
 21
350.16428276230971
 31
0.0
 73
     2
  0
LINE
  5
5F38
  8
0
 10
103.2499999999999
 20
343.82219510669671
 30
0.0
 11
97.545382594499856
 21
343.82219510669671
 31
0.0
  0
CIRCLE
  5
5F39
  8
0
 10
103.2499999999999
 20
343.82219510669671
 30
0.0
 40
4.5
  0
TEXT
  5
5F3A
  8
0
 10
95.105309771431308
 20
341.62445029205929
 30
0.0
 40
1.8
  1
西
 72
     1
 11
95.945309771431312
 21
342.52445029205933
 31
0.0
 73
     2
  0
TEXT
  5
5F3B
  8
0
 10
94.067334022075286
 20
344.2461951106049
 30
0.0
 40
1.8
  1
270゜
 72
     1
 11
96.857334022075307
 21
345.14619511060482
 31
0.0
 73
     2
  0
LINE
  5
5F3C
  8
0
 10
103.2499999999999
 20
343.82219510669671
 30
0.0
 11
103.2499999999999
 21
349.52681251219701
 31
0.0
  0
LINE
  5
5F3D
  8
0
 10
103.2499999999999
 20
343.82219510669671
 30
0.0
 11
108.9546174055
 21
343.82219510669671
 31
0.0
  0
TEXT
  5
5F3E
  8
0
 10
109.4269034460918
 20
341.62445029205929
 30
0.0
 40
1.8
  1
東
 72
     1
 11
110.2669034460919
 21
342.52445029205933
 31
0.0
 73
     2
  0
TEXT
  5
5F3F
  8
0
 10
105.9118367462349
 20
349.18130750876958
 30
0.0
 40
1.8
  1
0゜
 72
     1
 11
106.90183674623491
 21
350.08130750876961
 31
0.0
 73
     2
  0
LINE
  5
5F40
  8
0
 10
237.0
 20
351.82219510669671
 30
0.0
 11
237.0
 21
335.82219510669688
 31
0.0
  0
LINE
  5
5F41
  8
0
 10
220.0
 20
351.82219510669671
 30
0.0
 11
220.0
 21
335.82219510669688
 31
0.0
  0
TEXT
  5
5F42
  8
0
 10
222.75
 20
338.57219510669682
 30
0.0
 40
2.5
  1
ポ ン プ
 72
     1
 11
228.5
 21
339.82219510669682
 31
0.0
 73
     2
  0
LINE
  5
5F43
  8
0
 10
162.5
 20
335.82219510669688
 30
0.0
 11
162.5
 21
367.82219510669671
 31
0.0
  0
TEXT
  5
5F44
  8
0
 10
141.5
 20
349.57219510669671
 30
0.0
 40
2.5
  1
使用機種
  7
STANDATDT
 72
     1
 11
141.5
 21
343.82219510669671
 31
0.0
 73
     2
  0
LINE
  5
5F45
  8
0
 10
145.5
 20
335.82219510669688
 30
0.0
 11
145.5
 21
367.82219510669671
 31
0.0
  0
TEXT
  5
5F46
  8
0
 10
148.33333333333329
 20
338.57219510669682
 30
0.0
 40
2.5
  1
エンジン
 72
     1
 11
154.0
 21
339.82219510669682
 31
0.0
 73
     2
  0
LINE
  5
5F47
  8
0
 10
137.5
 20
335.82219510669688
 30
0.0
 11
137.5
 21
351.82219510669671
 31
0.0
  0
TEXT
  5
5F48
  8
0
 10
126.0157017748582
 20
338.42241305800678
 30
0.0
 40
1.8
  1
90゜
 72
     1
 11
127.9057017748582
 21
339.32241305800682
 31
0.0
 73
     2
  0
LINE
  5
5F49
  8
0
 10
121.5
 20
335.82219510669688
 30
0.0
 11
121.5
 21
351.82219510669671
 31
0.0
  0
TEXT
  5
5F4A
  8
0
 10
117.5
 20
349.57219510669671
 30
0.0
 40
2.5
  1
地盤勾配
  7
STANDATDT
 72
     1
 11
117.5
 21
343.82219510669671
 31
0.0
 73
     2
  0
LINE
  5
5F4B
  8
0
 10
113.5
 20
335.82219510669688
 30
0.0
 11
113.5
 21
351.82219510669671
 31
0.0
  0
TEXT
  5
5F4C
  8
0
 10
194.7499999999998
 20
356.07219510669671
 30
0.0
 40
2.5
  1
コ　　ア
 72
     1
 11
200.49999999999989
 21
357.32219510669671
 31
0.0
 73
     2
  0
TEXT
  5
5F4D
  8
0
 10
194.8333333333332
 20
353.07219510669671
 30
0.0
 40
2.5
  1
鑑 定 者
 72
     1
 11
200.49999999999989
 21
354.32219510669671
 31
0.0
 73
     2
  0
LINE
  5
5F4E
  8
0
 10
145.5
 20
343.82219510669671
 30
0.0
 11
288.0
 21
343.82219510669671
 31
0.0
  0
TEXT
  5
5F4F
  8
0
 10
125.1666666666666
 20
402.92888493724053
 30
0.0
 40
5.0
  1
ボーリング柱状図
 72
     1
 11
148.5
 21
405.42888493724053
 31
0.0
 73
     2
  0
TEXT
  5
5F50
  8
0
 10
148.33333333333329
 20
346.57219510669671
 30
0.0
 40
2.5
  1
試 錐 機
 72
     1
 11
154.0
 21
347.82219510669671
 31
0.0
 73
     2
  0
TEXT
  5
5F51
  8
0
 10
148.33333333333329
 20
353.07219510669671
 30
0.0
 40
2.5
  1
代 理 人
 72
     1
 11
154.0
 21
354.32219510669671
 31
0.0
 73
     2
  0
TEXT
  5
5F52
  8
0
 10
148.33333333333329
 20
356.07219510669671
 30
0.0
 40
2.5
  1
現　　場
 72
     1
 11
154.0
 21
357.32219510669671
 31
0.0
 73
     2
  0
TEXT
  5
5F53
  8
0
 10
148.4166666666666
 20
362.57219510669671
 30
0.0
 40
2.5
  1
調査期間
 72
     1
 11
154.0
 21
363.82219510669671
 31
0.0
 73
     2
  0
LINE
  5
5F54
  8
0
 10
115.5
 20
375.82219510669671
 30
0.0
 11
115.5
 21
367.82219510669671
 31
0.0
  0
TEXT
  5
5F55
  8
0
 10
133.8597423266454
 20
345.98857265613219
 30
0.0
 40
1.8
  1
0゜
 72
     1
 11
134.8497423266455
 21
346.88857265613223
 31
0.0
 73
     2
  0
LINE
  5
5F56
  8
0
 10
115.5
 20
359.82219510669671
 30
0.0
 11
115.5
 21
351.82219510669671
 31
0.0
  0
TEXT
  5
5F57
  8
0
 10
124.53747192386921
 20
346.32530519924899
 30
0.0
 40
1.8
  1
鉛直
  7
STANDATDT
 72
     1
 11
124.53747192386921
 21
344.34530519924903
 31
0.0
 73
     2
  0
TEXT
  5
5F58
  8
0
 10
127.9442777811494
 20
347.27177690278188
 30
0.0
 40
1.8
  1
水平
 72
     1
 11
129.86427778114941
 21
348.17177690278191
 31
0.0
 73
     2
  0
ARC
  5
5F59
  8
0
 10
126.4999842828087
 20
346.60653872859558
 30
0.0
 40
4.5
 50
270.0
 51
0.0
  0
LINE
  5
5F5A
  8
0
 10
126.4999842828087
 20
346.60653872859558
 30
0.0
 11
132.20460168830891
 21
346.60653872859558
 31
0.0
  0
LINE
  5
5F5B
  8
0
 10
126.4999842828087
 20
346.60653872859558
 30
0.0
 11
126.4999842828087
 21
340.90192132309562
 31
0.0
  0
LINE
  5
5F5C
  8
0
 10
192.5
 20
351.82219510669671
 30
0.0
 11
192.5
 21
359.82219510669671
 31
0.0
  0
TEXT
  5
5F5D
  8
0
 10
242.33333333333329
 20
356.07219510669671
 30
0.0
 40
2.5
  1
ボーリン
 72
     1
 11
248.0
 21
357.32219510669671
 31
0.0
 73
     2
  0
TEXT
  5
5F5E
  8
0
 10
242.1666666666666
 20
353.07219510669671
 30
0.0
 40
2.5
  1
グ責任者
 72
     1
 11
248.0
 21
354.32219510669671
 31
0.0
 73
     2
  0
TEXT
  5
5F5F
  8
0
 10
242.33333333333329
 20
362.57219510669671
 30
0.0
 40
2.5
  1
東　　経
 72
     1
 11
248.0
 21
363.82219510669671
 31
0.0
 73
     2
  0
TEXT
  5
5F60
  8
0
 10
242.33333333333329
 20
370.57219510669671
 30
0.0
 40
2.5
  1
北　　緯
 72
     1
 11
248.0
 21
371.82219510669671
 31
0.0
 73
     2
  0
POLYLINE
  5
5F61
  8
0
 66
     1
 10
0.0
 20
0.0
 30
0.0
 70
     1
  0
VERTEX
  5
64C4
  8
0
 10
288.0
 20
384.822195106697
 30
0.0
  0
VERTEX
  5
64C5
  8
0
 10
224.0
 20
384.822195106697
 30
0.0
  0
VERTEX
  5
64C6
  8
0
 10
224.0
 20
393.322195106697
 30
0.0
  0
VERTEX
  5
64C7
  8
0
 10
288.0
 20
393.322195106697
 30
0.0
  0
SEQEND
  5
64C8
  8
0
  0
LINE
  5
5F67
  8
0
 10
239.5
 20
375.82219510669671
 30
0.0
 11
239.5
 21
351.82219510669671
 31
0.0
  0
TEXT
  5
5F68
  8
0
 10
222.9166666666666
 20
348.07219510669671
 30
0.0
 40
2.5
  1
ハンマー
 72
     1
 11
228.5
 21
349.32219510669671
 31
0.0
 73
     2
  0
TEXT
  5
5F69
  8
0
 10
222.83333333333329
 20
345.07219510669682
 30
0.0
 40
2.5
  1
落下用具
 72
     1
 11
228.5
 21
346.32219510669688
 31
0.0
 73
     2
  0
LINE
  5
5F6A
  8
0
 10
209.0
 20
351.82219510669671
 30
0.0
 11
209.0
 21
359.82219510669671
 31
0.0
  0
TEXT
  5
5F6B
  8
0
 10
227.22290107282211
 20
376.85757598760421
 30
0.0
 40
2.0
  1
シートNo.
 72
     1
 11
232.82290107282211
 21
377.85757598760421
 31
0.0
 73
     2
  0
TEXT
  5
5F6C
  8
0
 10
226.0
 20
388.072195106697
 30
0.0
 40
2.0
  1
ボーリングNo.
 72
     1
 11
234.0
 21
389.072195106697
 31
0.0
 73
     2
  0
LINE
  5
5F6D
  8
0
 10
252.0
 20
393.322195106697
 30
0.0
 11
252.0
 21
384.822195106697
 31
0.0
  0
LINE
  5
5F6E
  8
0
 10
248.0
 20
393.322195106697
 30
0.0
 11
248.0
 21
384.822195106697
 31
0.0
  0
LINE
  5
5F6F
  8
0
 10
244.0
 20
393.322195106697
 30
0.0
 11
244.0
 21
384.822195106697
 31
0.0
  0
LINE
  5
5F70
  8
0
 10
256.49999999999989
 20
375.82219510669671
 30
0.0
 11
256.49999999999989
 21
351.82219510669671
 31
0.0
  0
LINE
  5
5F71
  8
0
 10
276.0
 20
393.322195106697
 30
0.0
 11
276.0
 21
384.822195106697
 31
0.0
  0
LINE
  5
5F72
  8
0
 10
272.0
 20
393.322195106697
 30
0.0
 11
272.0
 21
384.822195106697
 31
0.0
  0
LINE
  5
5F73
  8
0
 10
268.0
 20
393.322195106697
 30
0.0
 11
268.0
 21
384.822195106697
 31
0.0
  0
LINE
  5
5F74
  8
0
 10
264.0
 20
393.322195106697
 30
0.0
 11
264.0
 21
384.822195106697
 31
0.0
  0
LINE
  5
5F75
  8
0
 10
260.0
 20
393.322195106697
 30
0.0
 11
260.0
 21
384.822195106697
 31
0.0
  0
LINE
  5
5F76
  8
0
 10
256.0
 20
393.322195106697
 30
0.0
 11
256.0
 21
384.822195106697
 31
0.0
  0
LINE
  5
5F77
  8
0
 10
284.0
 20
393.322195106697
 30
0.0
 11
284.0
 21
384.822195106697
 31
0.0
  0
LINE
  5
5F78
  8
0
 10
280.0
 20
393.322195106697
 30
0.0
 11
280.0
 21
384.822195106697
 31
0.0
  0
LINE
  5
5F79
  8
0
 10
241.0
 20
309.82219510669682
 30
0.0
 11
241.0
 21
328.82219510669682
 31
0.0
  0
LINE
  5
5F7A
  8
0
 10
251.0
 20
309.82219510669682
 30
0.0
 11
251.0
 21
328.82219510669682
 31
0.0
  0
LINE
  5
5F7B
  8
0
 10
73.000000000000028
 20
8.8221951066968813
 30
0.0
 11
73.0
 21
308.82219510669688
 31
0.0
  0
LINE
  5
5F7C
  8
0
 10
50.000000000000071
 20
8.8221951066968813
 30
0.0
 11
50.0
 21
308.82219510669688
 31
0.0
  0
LINE
  5
5F7D
  8
0
 10
40.0
 20
8.8221951066968813
 30
0.0
 11
40.0
 21
308.82219510669688
 31
0.0
  0
LINE
  5
5F7E
  8
0
 10
30.0
 20
8.8221951066968813
 30
0.0
 11
30.0
 21
308.82219510669688
 31
0.0
  0
LINE
  5
5F7F
  8
0
 10
20.0
 20
8.8221951066968813
 30
0.0
 11
20.0
 21
308.82219510669688
 31
0.0
  0
LINE
  5
5F80
  8
0
 10
83.000000000000014
 20
8.8221951066969062
 30
0.0
 11
83.0
 21
308.82219510669688
 31
0.0
  0
LINE
  5
5F81
  8
0
 10
91.000000828072416
 20
8.8221951066969062
 30
0.0
 11
91.000000828072416
 21
308.82219540703909
 31
0.0
  0
LINE
  5
5F82
  8
0
 10
96.000000828072359
 20
8.8221951066969062
 30
0.0
 11
96.000000828072416
 21
308.82219540703909
 31
0.0
  0
LINE
  5
5F83
  8
0
 10
101.0000008280723
 20
8.8221951066969062
 30
0.0
 11
101.0000008280724
 21
308.82219540703909
 31
0.0
  0
LINE
  5
5F84
  8
0
 10
106.0000008280723
 20
8.8221951066969062
 30
0.0
 11
106.0000008280724
 21
308.82219540703909
 31
0.0
  0
LINE
  5
5F85
  8
0
 10
150.00000082807239
 20
8.8221951066969062
 30
0.0
 11
150.00000082807239
 21
308.82219540703909
 31
0.0
  0
LINE
  5
5F86
  8
0
 10
158.0000008280725
 20
8.8221951066969062
 30
0.0
 11
158.00000082807239
 21
308.82219540703909
 31
0.0
  0
LINE
  5
5F87
  8
0
 10
170.9999999999998
 20
8.8221951066969062
 30
0.0
 11
171.0
 21
308.82219540703909
 31
0.0
  0
LINE
  5
5F88
  8
0
 10
176.0
 20
8.8221951066969062
 30
0.0
 11
176.0
 21
308.82219510669688
 31
0.0
  0
LINE
  5
5F89
  8
0
 10
176.99999999999969
 20
8.8221951066969062
 30
0.0
 11
177.0
 21
308.82219510669688
 31
0.0
  0
LINE
  5
5F8A
  8
0
 10
186.99999999999989
 20
8.8221951066969062
 30
0.0
 11
187.0
 21
308.82219510669688
 31
0.0
  0
LINE
  5
5F8B
  8
0
 10
196.99999999999969
 20
8.8221951066969062
 30
0.0
 11
197.0
 21
308.82219510669688
 31
0.0
  0
LINE
  5
5F8C
  8
0
 10
205.0
 20
8.8221951066969062
 30
0.0
 11
205.0
 21
308.82193503293342
 31
0.0
  0
LINE
  5
5F8D
  8
0
 10
213.0
 20
8.8221951066969062
 30
0.0
 11
213.0
 21
308.82193503293342
 31
0.0
  0
LINE
  5
5F8E
  8
0
 10
220.9999999999998
 20
8.8221951066969382
 30
0.0
 11
221.0
 21
308.82193503293342
 31
0.0
  0
LINE
  5
5F8F
  8
0
 10
225.9999999999998
 20
8.8221951066969382
 30
0.0
 11
226.0
 21
308.82193503293342
 31
0.0
  0
LINE
  5
5F90
  8
0
 10
230.9999999999998
 20
8.8221951066969382
 30
0.0
 11
231.0
 21
308.82219510669688
 31
0.0
  0
LINE
  5
5F91
  8
0
 10
241.00000000000011
 20
8.8221951066969382
 30
0.0
 11
241.0
 21
308.82219510669688
 31
0.0
  0
LINE
  5
5F93
  8
0
 10
251.0000000000002
 20
8.8221951066969382
 30
0.0
 11
251.0
 21
308.82219510669688
 31
0.0
  0
LINE
  5
5F94
  8
0
 10
256.0
 20
8.8221951066969382
 30
0.0
 11
256.0
 21
308.82219510669688
 31
0.0
  0
LINE
  5
5F95
  8
0
 10
261.00000000000023
 20
8.8221951066969382
 30
0.0
 11
261.0
 21
308.82219510669688
 31
0.0
  0
TEXT
  5
5F96
  8
0
 10
15.663756440373
 20
117.8221951066968
 30
0.0
 40
2.0
  1
19
 72
     2
 11
18.330423107039671
 21
118.8221951066968
 31
0.0
 73
     2
  0
LINE
  5
5F97
  8
0
 10
10.0
 20
108.8221951066967
 30
0.0
 11
13.0
 21
108.8221951066967
 31
0.0
  0
LINE
  5
5F98
  8
0
 10
10.0
 20
109.8221951066967
 30
0.0
 11
11.0
 21
109.8221951066967
 31
0.0
  0
LINE
  5
5F99
  8
0
 10
10.0
 20
118.8221951066968
 30
0.0
 11
13.0
 21
118.8221951066968
 31
0.0
  0
LINE
  5
5F9A
  8
0
 10
10.0
 20
117.8221951066968
 30
0.0
 11
11.0
 21
117.8221951066968
 31
0.0
  0
LINE
  5
5F9B
  8
0
 10
10.0
 20
116.8221951066968
 30
0.0
 11
11.0
 21
116.8221951066968
 31
0.0
  0
LINE
  5
5F9C
  8
0
 10
10.0
 20
115.8221951066968
 30
0.0
 11
11.0
 21
115.8221951066968
 31
0.0
  0
LINE
  5
5F9D
  8
0
 10
10.0
 20
114.8221951066968
 30
0.0
 11
11.0
 21
114.8221951066968
 31
0.0
  0
LINE
  5
5F9E
  8
0
 10
10.0
 20
113.8221951066967
 30
0.0
 11
12.0
 21
113.8221951066967
 31
0.0
  0
LINE
  5
5F9F
  8
0
 10
10.0
 20
110.8221951066967
 30
0.0
 11
11.0
 21
110.8221951066967
 31
0.0
  0
LINE
  5
5FA0
  8
0
 10
10.0
 20
111.8221951066967
 30
0.0
 11
11.0
 21
111.8221951066967
 31
0.0
  0
LINE
  5
5FA1
  8
0
 10
10.0
 20
112.8221951066967
 30
0.0
 11
11.0
 21
112.8221951066967
 31
0.0
  0
TEXT
  5
5FA2
  8
0
 10
15.330423107039669
 20
107.8221951066967
 30
0.0
 40
2.0
  1
20
 72
     2
 11
18.330423107039671
 21
108.8221951066967
 31
0.0
 73
     2
  0
LINE
  5
5FA3
  8
0
 10
10.0
 20
127.8221951066967
 30
0.0
 11
11.0
 21
127.8221951066967
 31
0.0
  0
LINE
  5
5FA4
  8
0
 10
10.0
 20
126.8221951066967
 30
0.0
 11
11.0
 21
126.8221951066967
 31
0.0
  0
LINE
  5
5FA5
  8
0
 10
10.0
 20
125.8221951066967
 30
0.0
 11
11.0
 21
125.8221951066967
 31
0.0
  0
LINE
  5
5FA6
  8
0
 10
10.0
 20
124.8221951066968
 30
0.0
 11
11.0
 21
124.8221951066968
 31
0.0
  0
LINE
  5
5FA7
  8
0
 10
10.0
 20
121.8221951066968
 30
0.0
 11
11.0
 21
121.8221951066968
 31
0.0
  0
LINE
  5
5FA8
  8
0
 10
10.0
 20
122.8221951066968
 30
0.0
 11
11.0
 21
122.8221951066968
 31
0.0
  0
LINE
  5
5FA9
  8
0
 10
10.0
 20
123.8221951066968
 30
0.0
 11
12.0
 21
123.8221951066968
 31
0.0
  0
LINE
  5
5FAA
  8
0
 10
10.0
 20
119.8221951066968
 30
0.0
 11
11.0
 21
119.8221951066968
 31
0.0
  0
LINE
  5
5FAB
  8
0
 10
10.0
 20
120.8221951066968
 30
0.0
 11
11.0
 21
120.8221951066968
 31
0.0
  0
LINE
  5
5FAC
  8
0
 10
10.0
 20
128.82219510669671
 30
0.0
 11
13.0
 21
128.82219510669671
 31
0.0
  0
LINE
  5
5FAD
  8
0
 10
10.0
 20
130.82219510669671
 30
0.0
 11
11.0
 21
130.82219510669671
 31
0.0
  0
LINE
  5
5FAE
  8
0
 10
10.0
 20
131.82219510669671
 30
0.0
 11
11.0
 21
131.82219510669671
 31
0.0
  0
LINE
  5
5FAF
  8
0
 10
10.0
 20
135.82219510669671
 30
0.0
 11
11.0
 21
135.82219510669671
 31
0.0
  0
LINE
  5
5FB0
  8
0
 10
10.0
 20
134.82219510669671
 30
0.0
 11
11.0
 21
134.82219510669671
 31
0.0
  0
LINE
  5
5FB1
  8
0
 10
10.0
 20
132.82219510669671
 30
0.0
 11
11.0
 21
132.82219510669671
 31
0.0
  0
LINE
  5
5FB2
  8
0
 10
10.0
 20
133.82219510669671
 30
0.0
 11
12.0
 21
133.82219510669671
 31
0.0
  0
LINE
  5
5FB3
  8
0
 10
10.0
 20
129.82219510669671
 30
0.0
 11
11.0
 21
129.82219510669671
 31
0.0
  0
TEXT
  5
5FB4
  8
0
 10
15.663756440373
 20
127.8221951066967
 30
0.0
 40
2.0
  1
18
 72
     2
 11
18.330423107039671
 21
128.82219510669671
 31
0.0
 73
     2
  0
LINE
  5
5FB5
  8
0
 10
10.0
 20
138.82219510669671
 30
0.0
 11
13.0
 21
138.82219510669671
 31
0.0
  0
LINE
  5
5FB6
  8
0
 10
10.0
 20
139.82219510669671
 30
0.0
 11
11.0
 21
139.82219510669671
 31
0.0
  0
LINE
  5
5FB7
  8
0
 10
10.0
 20
140.8221951066968
 30
0.0
 11
11.0
 21
140.8221951066968
 31
0.0
  0
LINE
  5
5FB8
  8
0
 10
10.0
 20
141.8221951066968
 30
0.0
 11
11.0
 21
141.8221951066968
 31
0.0
  0
LINE
  5
5FB9
  8
0
 10
10.0
 20
142.8221951066968
 30
0.0
 11
11.0
 21
142.8221951066968
 31
0.0
  0
LINE
  5
5FBA
  8
0
 10
10.0
 20
144.8221951066968
 30
0.0
 11
11.0
 21
144.8221951066968
 31
0.0
  0
LINE
  5
5FBB
  8
0
 10
10.0
 20
143.8221951066968
 30
0.0
 11
12.0
 21
143.8221951066968
 31
0.0
  0
LINE
  5
5FBC
  8
0
 10
10.0
 20
137.82219510669671
 30
0.0
 11
11.0
 21
137.82219510669671
 31
0.0
  0
LINE
  5
5FBD
  8
0
 10
10.0
 20
136.82219510669671
 30
0.0
 11
11.0
 21
136.82219510669671
 31
0.0
  0
LINE
  5
5FBE
  8
0
 10
10.0
 20
148.8221951066968
 30
0.0
 11
13.0
 21
148.8221951066968
 31
0.0
  0
LINE
  5
5FBF
  8
0
 10
10.0
 20
147.8221951066968
 30
0.0
 11
11.0
 21
147.8221951066968
 31
0.0
  0
LINE
  5
5FC0
  8
0
 10
10.0
 20
146.8221951066968
 30
0.0
 11
11.0
 21
146.8221951066968
 31
0.0
  0
LINE
  5
5FC1
  8
0
 10
10.0
 20
149.8221951066968
 30
0.0
 11
11.0
 21
149.8221951066968
 31
0.0
  0
LINE
  5
5FC2
  8
0
 10
10.0
 20
150.8221951066968
 30
0.0
 11
11.0
 21
150.8221951066968
 31
0.0
  0
LINE
  5
5FC3
  8
0
 10
10.0
 20
151.8221951066968
 30
0.0
 11
11.0
 21
151.8221951066968
 31
0.0
  0
LINE
  5
5FC4
  8
0
 10
10.0
 20
152.8221951066968
 30
0.0
 11
11.0
 21
152.8221951066968
 31
0.0
  0
LINE
  5
5FC5
  8
0
 10
10.0
 20
153.8221951066968
 30
0.0
 11
12.0
 21
153.8221951066968
 31
0.0
  0
LINE
  5
5FC6
  8
0
 10
10.0
 20
145.8221951066968
 30
0.0
 11
11.0
 21
145.8221951066968
 31
0.0
  0
TEXT
  5
5FC7
  8
0
 10
15.663756440373
 20
137.82219510669671
 30
0.0
 40
2.0
  1
17
 72
     2
 11
18.330423107039671
 21
138.82219510669671
 31
0.0
 73
     2
  0
TEXT
  5
5FC8
  8
0
 10
15.663756440373
 20
147.8221951066968
 30
0.0
 40
2.0
  1
16
 72
     2
 11
18.330423107039671
 21
148.8221951066968
 31
0.0
 73
     2
  0
LINE
  5
5FC9
  8
0
 10
10.0
 20
158.8221951066968
 30
0.0
 11
13.0
 21
158.8221951066968
 31
0.0
  0
LINE
  5
5FCA
  8
0
 10
10.0
 20
162.8221951066968
 30
0.0
 11
11.0
 21
162.8221951066968
 31
0.0
  0
LINE
  5
5FCB
  8
0
 10
10.0
 20
157.8221951066968
 30
0.0
 11
11.0
 21
157.8221951066968
 31
0.0
  0
LINE
  5
5FCC
  8
0
 10
10.0
 20
156.8221951066968
 30
0.0
 11
11.0
 21
156.8221951066968
 31
0.0
  0
LINE
  5
5FCD
  8
0
 10
10.0
 20
155.8221951066968
 30
0.0
 11
11.0
 21
155.8221951066968
 31
0.0
  0
LINE
  5
5FCE
  8
0
 10
10.0
 20
154.8221951066968
 30
0.0
 11
11.0
 21
154.8221951066968
 31
0.0
  0
LINE
  5
5FCF
  8
0
 10
10.0
 20
159.8221951066968
 30
0.0
 11
11.0
 21
159.8221951066968
 31
0.0
  0
LINE
  5
5FD0
  8
0
 10
10.0
 20
160.8221951066968
 30
0.0
 11
11.0
 21
160.8221951066968
 31
0.0
  0
LINE
  5
5FD1
  8
0
 10
10.0
 20
161.8221951066968
 30
0.0
 11
11.0
 21
161.8221951066968
 31
0.0
  0
LINE
  5
5FD2
  8
0
 10
10.0
 20
168.8221951066968
 30
0.0
 11
13.0
 21
168.8221951066968
 31
0.0
  0
LINE
  5
5FD3
  8
0
 10
10.0
 20
167.8221951066968
 30
0.0
 11
11.0
 21
167.8221951066968
 31
0.0
  0
LINE
  5
5FD4
  8
0
 10
10.0
 20
166.8221951066968
 30
0.0
 11
11.0
 21
166.8221951066968
 31
0.0
  0
LINE
  5
5FD5
  8
0
 10
10.0
 20
165.8221951066968
 30
0.0
 11
11.0
 21
165.8221951066968
 31
0.0
  0
LINE
  5
5FD6
  8
0
 10
10.0
 20
164.8221951066968
 30
0.0
 11
11.0
 21
164.8221951066968
 31
0.0
  0
LINE
  5
5FD7
  8
0
 10
10.0
 20
169.8221951066968
 30
0.0
 11
11.0
 21
169.8221951066968
 31
0.0
  0
LINE
  5
5FD8
  8
0
 10
10.0
 20
170.8221951066968
 30
0.0
 11
11.0
 21
170.8221951066968
 31
0.0
  0
LINE
  5
5FD9
  8
0
 10
10.0
 20
163.8221951066968
 30
0.0
 11
12.0
 21
163.8221951066968
 31
0.0
  0
TEXT
  5
5FDA
  8
0
 10
15.663756440373
 20
157.8221951066968
 30
0.0
 40
2.0
  1
15
 72
     2
 11
18.330423107039671
 21
158.8221951066968
 31
0.0
 73
     2
  0
TEXT
  5
5FDB
  8
0
 10
15.663756440373
 20
167.8221951066968
 30
0.0
 40
2.0
  1
14
 72
     2
 11
18.330423107039671
 21
168.8221951066968
 31
0.0
 73
     2
  0
TEXT
  5
5FDC
  8
0
 10
15.663756440373
 20
187.8221951066968
 30
0.0
 40
2.0
  1
12
 72
     2
 11
18.330423107039671
 21
188.8221951066968
 31
0.0
 73
     2
  0
LINE
  5
5FDD
  8
0
 10
10.0
 20
178.8221951066968
 30
0.0
 11
13.0
 21
178.8221951066968
 31
0.0
  0
LINE
  5
5FDE
  8
0
 10
10.0
 20
179.8221951066968
 30
0.0
 11
11.0
 21
179.8221951066968
 31
0.0
  0
LINE
  5
5FDF
  8
0
 10
10.0
 20
174.8221951066968
 30
0.0
 11
11.0
 21
174.8221951066968
 31
0.0
  0
LINE
  5
5FE0
  8
0
 10
10.0
 20
171.8221951066968
 30
0.0
 11
11.0
 21
171.8221951066968
 31
0.0
  0
LINE
  5
5FE1
  8
0
 10
10.0
 20
172.8221951066968
 30
0.0
 11
11.0
 21
172.8221951066968
 31
0.0
  0
LINE
  5
5FE2
  8
0
 10
10.0
 20
177.8221951066968
 30
0.0
 11
11.0
 21
177.8221951066968
 31
0.0
  0
LINE
  5
5FE3
  8
0
 10
10.0
 20
176.8221951066968
 30
0.0
 11
11.0
 21
176.8221951066968
 31
0.0
  0
LINE
  5
5FE4
  8
0
 10
10.0
 20
175.8221951066968
 30
0.0
 11
11.0
 21
175.8221951066968
 31
0.0
  0
LINE
  5
5FE5
  8
0
 10
10.0
 20
173.8221951066968
 30
0.0
 11
12.0
 21
173.8221951066968
 31
0.0
  0
LINE
  5
5FE6
  8
0
 10
10.0
 20
188.8221951066968
 30
0.0
 11
13.0
 21
188.8221951066968
 31
0.0
  0
LINE
  5
5FE7
  8
0
 10
10.0
 20
187.8221951066968
 30
0.0
 11
11.0
 21
187.8221951066968
 31
0.0
  0
LINE
  5
5FE8
  8
0
 10
10.0
 20
185.8221951066968
 30
0.0
 11
11.0
 21
185.8221951066968
 31
0.0
  0
LINE
  5
5FE9
  8
0
 10
10.0
 20
184.8221951066968
 30
0.0
 11
11.0
 21
184.8221951066968
 31
0.0
  0
LINE
  5
5FEA
  8
0
 10
10.0
 20
180.8221951066968
 30
0.0
 11
11.0
 21
180.8221951066968
 31
0.0
  0
LINE
  5
5FEB
  8
0
 10
10.0
 20
181.8221951066968
 30
0.0
 11
11.0
 21
181.8221951066968
 31
0.0
  0
LINE
  5
5FEC
  8
0
 10
10.0
 20
182.8221951066968
 30
0.0
 11
11.0
 21
182.8221951066968
 31
0.0
  0
LINE
  5
5FED
  8
0
 10
10.0
 20
186.8221951066968
 30
0.0
 11
11.0
 21
186.8221951066968
 31
0.0
  0
LINE
  5
5FEE
  8
0
 10
10.0
 20
183.8221951066968
 30
0.0
 11
12.0
 21
183.8221951066968
 31
0.0
  0
TEXT
  5
5FEF
  8
0
 10
15.663756440373
 20
177.8221951066968
 30
0.0
 40
2.0
  1
13
 72
     2
 11
18.330423107039671
 21
178.8221951066968
 31
0.0
 73
     2
  0
LINE
  5
5FF0
  8
0
 10
10.0
 20
195.8221951066968
 30
0.0
 11
11.0
 21
195.8221951066968
 31
0.0
  0
LINE
  5
5FF1
  8
0
 10
10.0
 20
196.8221951066968
 30
0.0
 11
11.0
 21
196.8221951066968
 31
0.0
  0
LINE
  5
5FF2
  8
0
 10
10.0
 20
194.82219510669691
 30
0.0
 11
11.0
 21
194.82219510669691
 31
0.0
  0
LINE
  5
5FF3
  8
0
 10
10.0
 20
189.8221951066968
 30
0.0
 11
11.0
 21
189.8221951066968
 31
0.0
  0
LINE
  5
5FF4
  8
0
 10
10.0
 20
190.8221951066968
 30
0.0
 11
11.0
 21
190.8221951066968
 31
0.0
  0
LINE
  5
5FF5
  8
0
 10
10.0
 20
191.8221951066968
 30
0.0
 11
11.0
 21
191.8221951066968
 31
0.0
  0
LINE
  5
5FF6
  8
0
 10
10.0
 20
192.8221951066968
 30
0.0
 11
11.0
 21
192.8221951066968
 31
0.0
  0
LINE
  5
5FF7
  8
0
 10
10.0
 20
193.8221951066968
 30
0.0
 11
12.0
 21
193.8221951066968
 31
0.0
  0
LINE
  5
5FF8
  8
0
 10
10.0
 20
198.8221951066968
 30
0.0
 11
13.0
 21
198.8221951066968
 31
0.0
  0
LINE
  5
5FF9
  8
0
 10
10.0
 20
204.82219510669691
 30
0.0
 11
11.0
 21
204.82219510669691
 31
0.0
  0
LINE
  5
5FFA
  8
0
 10
10.0
 20
205.8221951066968
 30
0.0
 11
11.0
 21
205.8221951066968
 31
0.0
  0
LINE
  5
5FFB
  8
0
 10
10.0
 20
203.8221951066968
 30
0.0
 11
12.0
 21
203.8221951066968
 31
0.0
  0
LINE
  5
5FFC
  8
0
 10
10.0
 20
197.8221951066968
 30
0.0
 11
11.0
 21
197.8221951066968
 31
0.0
  0
LINE
  5
5FFD
  8
0
 10
10.0
 20
202.82219510669691
 30
0.0
 11
11.0
 21
202.82219510669691
 31
0.0
  0
LINE
  5
5FFE
  8
0
 10
10.0
 20
201.8221951066968
 30
0.0
 11
11.0
 21
201.8221951066968
 31
0.0
  0
LINE
  5
5FFF
  8
0
 10
10.0
 20
200.8221951066968
 30
0.0
 11
11.0
 21
200.8221951066968
 31
0.0
  0
LINE
  5
6000
  8
0
 10
10.0
 20
199.8221951066968
 30
0.0
 11
11.0
 21
199.8221951066968
 31
0.0
  0
TEXT
  5
6001
  8
0
 10
16.330423107039671
 20
197.8221951066968
 30
0.0
 40
2.0
  1
11
 72
     2
 11
18.330423107039671
 21
198.8221951066968
 31
0.0
 73
     2
  0
LINE
  5
6002
  8
0
 10
10.0
 20
206.82219510669691
 30
0.0
 11
11.0
 21
206.82219510669691
 31
0.0
  0
LINE
  5
6003
  8
0
 10
10.0
 20
207.8221951066968
 30
0.0
 11
11.0
 21
207.8221951066968
 31
0.0
  0
LINE
  5
6004
  8
0
 10
10.0
 20
12.822195106696901
 30
0.0
 11
11.0
 21
12.822195106696901
 31
0.0
  0
LINE
  5
6005
  8
0
 10
10.0
 20
11.82219510669691
 30
0.0
 11
11.0
 21
11.82219510669691
 31
0.0
  0
LINE
  5
6006
  8
0
 10
10.0
 20
10.82219510669691
 30
0.0
 11
11.0
 21
10.82219510669691
 31
0.0
  0
LINE
  5
6007
  8
0
 10
10.0
 20
13.82219510669691
 30
0.0
 11
12.0
 21
13.82219510669691
 31
0.0
  0
LINE
  5
6008
  8
0
 10
10.0
 20
9.8221951066969062
 30
0.0
 11
11.0
 21
9.8221951066969062
 31
0.0
  0
TEXT
  5
6009
  8
0
 10
15.330423107039669
 20
9.0175770305732197
 30
0.0
 40
2.0
  1
30
 72
     2
 11
18.330423107039671
 21
10.017577030573211
 31
0.0
 73
     2
  0
LINE
  5
600A
  8
0
 10
10.0
 20
18.822195106696888
 30
0.0
 11
13.0
 21
18.822195106696888
 31
0.0
  0
LINE
  5
600B
  8
0
 10
10.0
 20
20.82219510669691
 30
0.0
 11
11.0
 21
20.82219510669691
 31
0.0
  0
LINE
  5
600C
  8
0
 10
10.0
 20
19.82219510669691
 30
0.0
 11
11.0
 21
19.82219510669691
 31
0.0
  0
LINE
  5
600D
  8
0
 10
10.0
 20
22.822195106696888
 30
0.0
 11
11.0
 21
22.822195106696888
 31
0.0
  0
LINE
  5
600E
  8
0
 10
10.0
 20
21.822195106696888
 30
0.0
 11
11.0
 21
21.822195106696888
 31
0.0
  0
LINE
  5
600F
  8
0
 10
10.0
 20
14.82219510669691
 30
0.0
 11
11.0
 21
14.82219510669691
 31
0.0
  0
LINE
  5
6010
  8
0
 10
10.0
 20
15.822195106696901
 30
0.0
 11
11.0
 21
15.822195106696901
 31
0.0
  0
LINE
  5
6011
  8
0
 10
10.0
 20
16.82219510669691
 30
0.0
 11
11.0
 21
16.82219510669691
 31
0.0
  0
LINE
  5
6012
  8
0
 10
10.0
 20
17.822195106696899
 30
0.0
 11
11.0
 21
17.822195106696899
 31
0.0
  0
LINE
  5
6013
  8
0
 10
10.0
 20
28.822195106696888
 30
0.0
 11
13.0
 21
28.822195106696888
 31
0.0
  0
LINE
  5
6014
  8
0
 10
10.0
 20
29.82219510669691
 30
0.0
 11
11.0
 21
29.82219510669691
 31
0.0
  0
LINE
  5
6015
  8
0
 10
10.0
 20
31.82219510669691
 30
0.0
 11
11.0
 21
31.82219510669691
 31
0.0
  0
LINE
  5
6016
  8
0
 10
10.0
 20
30.82219510669691
 30
0.0
 11
11.0
 21
30.82219510669691
 31
0.0
  0
LINE
  5
6017
  8
0
 10
10.0
 20
23.82219510669691
 30
0.0
 11
12.0
 21
23.82219510669691
 31
0.0
  0
LINE
  5
6018
  8
0
 10
10.0
 20
24.82219510669691
 30
0.0
 11
11.0
 21
24.82219510669691
 31
0.0
  0
LINE
  5
6019
  8
0
 10
10.0
 20
25.82219510669691
 30
0.0
 11
11.0
 21
25.82219510669691
 31
0.0
  0
LINE
  5
601A
  8
0
 10
10.0
 20
26.82219510669691
 30
0.0
 11
11.0
 21
26.82219510669691
 31
0.0
  0
LINE
  5
601B
  8
0
 10
10.0
 20
27.822195106696888
 30
0.0
 11
11.0
 21
27.822195106696888
 31
0.0
  0
TEXT
  5
601C
  8
0
 10
14.99708977370633
 20
17.822195106696888
 30
0.0
 40
2.0
  1
29
 72
     2
 11
18.330423107039671
 21
18.822195106696888
 31
0.0
 73
     2
  0
TEXT
  5
601D
  8
0
 10
14.99708977370633
 20
27.822195106696888
 30
0.0
 40
2.0
  1
28
 72
     2
 11
18.330423107039671
 21
28.822195106696888
 31
0.0
 73
     2
  0
TEXT
  5
601E
  8
0
 10
14.99708977370633
 20
47.822195106696903
 30
0.0
 40
2.0
  1
26
 72
     2
 11
18.330423107039671
 21
48.82219510669691
 31
0.0
 73
     2
  0
LINE
  5
601F
  8
0
 10
10.0
 20
38.822195106696888
 30
0.0
 11
13.0
 21
38.822195106696888
 31
0.0
  0
LINE
  5
6020
  8
0
 10
10.0
 20
33.82219510669691
 30
0.0
 11
12.0
 21
33.82219510669691
 31
0.0
  0
LINE
  5
6021
  8
0
 10
10.0
 20
32.822195106696903
 30
0.0
 11
11.0
 21
32.822195106696903
 31
0.0
  0
LINE
  5
6022
  8
0
 10
10.0
 20
34.82219510669691
 30
0.0
 11
11.0
 21
34.82219510669691
 31
0.0
  0
LINE
  5
6023
  8
0
 10
10.0
 20
35.822195106696903
 30
0.0
 11
11.0
 21
35.822195106696903
 31
0.0
  0
LINE
  5
6024
  8
0
 10
10.0
 20
36.822195106696903
 30
0.0
 11
11.0
 21
36.822195106696903
 31
0.0
  0
LINE
  5
6025
  8
0
 10
10.0
 20
37.822195106696888
 30
0.0
 11
11.0
 21
37.822195106696888
 31
0.0
  0
LINE
  5
6026
  8
0
 10
10.0
 20
40.822195106696888
 30
0.0
 11
11.0
 21
40.822195106696888
 31
0.0
  0
LINE
  5
6027
  8
0
 10
10.0
 20
39.822195106696903
 30
0.0
 11
11.0
 21
39.822195106696903
 31
0.0
  0
LINE
  5
6028
  8
0
 10
10.0
 20
48.82219510669691
 30
0.0
 11
13.0
 21
48.82219510669691
 31
0.0
  0
LINE
  5
6029
  8
0
 10
10.0
 20
45.822195106696903
 30
0.0
 11
11.0
 21
45.822195106696903
 31
0.0
  0
LINE
  5
602A
  8
0
 10
10.0
 20
46.82219510669691
 30
0.0
 11
11.0
 21
46.82219510669691
 31
0.0
  0
LINE
  5
602B
  8
0
 10
10.0
 20
47.822195106696903
 30
0.0
 11
11.0
 21
47.822195106696903
 31
0.0
  0
LINE
  5
602C
  8
0
 10
10.0
 20
43.82219510669691
 30
0.0
 11
12.0
 21
43.82219510669691
 31
0.0
  0
LINE
  5
602D
  8
0
 10
10.0
 20
44.82219510669691
 30
0.0
 11
11.0
 21
44.82219510669691
 31
0.0
  0
LINE
  5
602E
  8
0
 10
10.0
 20
42.822195106696903
 30
0.0
 11
11.0
 21
42.822195106696903
 31
0.0
  0
LINE
  5
602F
  8
0
 10
10.0
 20
41.822195106696903
 30
0.0
 11
11.0
 21
41.822195106696903
 31
0.0
  0
TEXT
  5
6030
  8
0
 10
14.997089773706341
 20
37.822195106696888
 30
0.0
 40
2.0
  1
27
 72
     2
 11
18.330423107039671
 21
38.822195106696888
 31
0.0
 73
     2
  0
LINE
  5
6031
  8
0
 10
10.0
 20
54.82219510669691
 30
0.0
 11
11.0
 21
54.82219510669691
 31
0.0
  0
LINE
  5
6032
  8
0
 10
10.0
 20
55.82219510669691
 30
0.0
 11
11.0
 21
55.82219510669691
 31
0.0
  0
LINE
  5
6033
  8
0
 10
10.0
 20
56.82219510669691
 30
0.0
 11
11.0
 21
56.82219510669691
 31
0.0
  0
LINE
  5
6034
  8
0
 10
10.0
 20
57.822195106696903
 30
0.0
 11
11.0
 21
57.822195106696903
 31
0.0
  0
LINE
  5
6035
  8
0
 10
10.0
 20
53.82219510669691
 30
0.0
 11
12.0
 21
53.82219510669691
 31
0.0
  0
LINE
  5
6036
  8
0
 10
10.0
 20
52.822195106696903
 30
0.0
 11
11.0
 21
52.822195106696903
 31
0.0
  0
LINE
  5
6037
  8
0
 10
10.0
 20
51.82219510669691
 30
0.0
 11
11.0
 21
51.82219510669691
 31
0.0
  0
LINE
  5
6038
  8
0
 10
10.0
 20
50.82219510669691
 30
0.0
 11
11.0
 21
50.82219510669691
 31
0.0
  0
LINE
  5
6039
  8
0
 10
10.0
 20
49.82219510669691
 30
0.0
 11
11.0
 21
49.82219510669691
 31
0.0
  0
LINE
  5
603A
  8
0
 10
10.0
 20
58.82219510669691
 30
0.0
 11
13.0
 21
58.82219510669691
 31
0.0
  0
LINE
  5
603B
  8
0
 10
10.0
 20
63.82219510669691
 30
0.0
 11
12.0
 21
63.82219510669691
 31
0.0
  0
LINE
  5
603C
  8
0
 10
10.0
 20
64.82219510669691
 30
0.0
 11
11.0
 21
64.82219510669691
 31
0.0
  0
LINE
  5
603D
  8
0
 10
10.0
 20
65.82219510669691
 30
0.0
 11
11.0
 21
65.82219510669691
 31
0.0
  0
LINE
  5
603E
  8
0
 10
10.0
 20
66.82219510669691
 30
0.0
 11
11.0
 21
66.82219510669691
 31
0.0
  0
LINE
  5
603F
  8
0
 10
10.0
 20
61.82219510669691
 30
0.0
 11
11.0
 21
61.82219510669691
 31
0.0
  0
LINE
  5
6040
  8
0
 10
10.0
 20
60.82219510669691
 30
0.0
 11
11.0
 21
60.82219510669691
 31
0.0
  0
LINE
  5
6041
  8
0
 10
10.0
 20
59.82219510669691
 30
0.0
 11
11.0
 21
59.82219510669691
 31
0.0
  0
LINE
  5
6042
  8
0
 10
10.0
 20
62.822195106696903
 30
0.0
 11
11.0
 21
62.822195106696903
 31
0.0
  0
TEXT
  5
6043
  8
0
 10
14.99708977370633
 20
57.822195106696903
 30
0.0
 40
2.0
  1
25
 72
     2
 11
18.330423107039671
 21
58.82219510669691
 31
0.0
 73
     2
  0
LINE
  5
6044
  8
0
 10
10.0
 20
68.82219510669691
 30
0.0
 11
13.0
 21
68.82219510669691
 31
0.0
  0
LINE
  5
6045
  8
0
 10
10.0
 20
73.82219510669691
 30
0.0
 11
12.0
 21
73.82219510669691
 31
0.0
  0
LINE
  5
6046
  8
0
 10
10.0
 20
72.822195106696896
 30
0.0
 11
11.0
 21
72.822195106696896
 31
0.0
  0
LINE
  5
6047
  8
0
 10
10.0
 20
71.82219510669691
 30
0.0
 11
11.0
 21
71.82219510669691
 31
0.0
  0
LINE
  5
6048
  8
0
 10
10.0
 20
74.82219510669691
 30
0.0
 11
11.0
 21
74.82219510669691
 31
0.0
  0
LINE
  5
6049
  8
0
 10
10.0
 20
70.82219510669691
 30
0.0
 11
11.0
 21
70.82219510669691
 31
0.0
  0
LINE
  5
604A
  8
0
 10
10.0
 20
69.82219510669691
 30
0.0
 11
11.0
 21
69.82219510669691
 31
0.0
  0
LINE
  5
604B
  8
0
 10
10.0
 20
67.822195106696896
 30
0.0
 11
11.0
 21
67.822195106696896
 31
0.0
  0
LINE
  5
604C
  8
0
 10
10.0
 20
78.82219510669691
 30
0.0
 11
13.0
 21
78.82219510669691
 31
0.0
  0
LINE
  5
604D
  8
0
 10
10.0
 20
83.822195106696896
 30
0.0
 11
12.0
 21
83.822195106696896
 31
0.0
  0
LINE
  5
604E
  8
0
 10
10.0
 20
82.822195106696896
 30
0.0
 11
11.0
 21
82.822195106696896
 31
0.0
  0
LINE
  5
604F
  8
0
 10
10.0
 20
81.82219510669691
 30
0.0
 11
11.0
 21
81.82219510669691
 31
0.0
  0
LINE
  5
6050
  8
0
 10
10.0
 20
80.82219510669691
 30
0.0
 11
11.0
 21
80.82219510669691
 31
0.0
  0
LINE
  5
6051
  8
0
 10
10.0
 20
75.82219510669691
 30
0.0
 11
11.0
 21
75.82219510669691
 31
0.0
  0
LINE
  5
6052
  8
0
 10
10.0
 20
76.82219510669691
 30
0.0
 11
11.0
 21
76.82219510669691
 31
0.0
  0
LINE
  5
6053
  8
0
 10
10.0
 20
77.822195106696896
 30
0.0
 11
11.0
 21
77.822195106696896
 31
0.0
  0
LINE
  5
6054
  8
0
 10
10.0
 20
79.82219510669691
 30
0.0
 11
11.0
 21
79.82219510669691
 31
0.0
  0
TEXT
  5
6055
  8
0
 10
14.997089773706341
 20
67.822195106696896
 30
0.0
 40
2.0
  1
24
 72
     2
 11
18.330423107039671
 21
68.82219510669691
 31
0.0
 73
     2
  0
TEXT
  5
6056
  8
0
 10
14.99708977370633
 20
77.822195106696896
 30
0.0
 40
2.0
  1
23
 72
     2
 11
18.330423107039671
 21
78.82219510669691
 31
0.0
 73
     2
  0
LINE
  5
6057
  8
0
 10
10.0
 20
88.822195106696896
 30
0.0
 11
13.0
 21
88.822195106696896
 31
0.0
  0
LINE
  5
6058
  8
0
 10
10.0
 20
92.822195106696867
 30
0.0
 11
11.0
 21
92.822195106696867
 31
0.0
  0
LINE
  5
6059
  8
0
 10
10.0
 20
91.822195106696924
 30
0.0
 11
11.0
 21
91.822195106696924
 31
0.0
  0
LINE
  5
605A
  8
0
 10
10.0
 20
90.822195106696924
 30
0.0
 11
11.0
 21
90.822195106696924
 31
0.0
  0
LINE
  5
605B
  8
0
 10
10.0
 20
89.822195106696924
 30
0.0
 11
11.0
 21
89.822195106696924
 31
0.0
  0
LINE
  5
605C
  8
0
 10
10.0
 20
86.82219510669691
 30
0.0
 11
11.0
 21
86.82219510669691
 31
0.0
  0
LINE
  5
605D
  8
0
 10
10.0
 20
84.822195106696924
 30
0.0
 11
11.0
 21
84.822195106696924
 31
0.0
  0
LINE
  5
605E
  8
0
 10
10.0
 20
85.82219510669691
 30
0.0
 11
11.0
 21
85.82219510669691
 31
0.0
  0
LINE
  5
605F
  8
0
 10
10.0
 20
87.822195106696896
 30
0.0
 11
11.0
 21
87.822195106696896
 31
0.0
  0
LINE
  5
6060
  8
0
 10
10.0
 20
98.822195106696924
 30
0.0
 11
13.0
 21
98.822195106696924
 31
0.0
  0
LINE
  5
6061
  8
0
 10
10.0
 20
99.822195106696924
 30
0.0
 11
11.0
 21
99.822195106696924
 31
0.0
  0
LINE
  5
6062
  8
0
 10
10.0
 20
100.8221951066969
 30
0.0
 11
11.0
 21
100.8221951066969
 31
0.0
  0
LINE
  5
6063
  8
0
 10
10.0
 20
101.8221951066969
 30
0.0
 11
11.0
 21
101.8221951066969
 31
0.0
  0
LINE
  5
6064
  8
0
 10
10.0
 20
97.822195106696867
 30
0.0
 11
11.0
 21
97.822195106696867
 31
0.0
  0
LINE
  5
6065
  8
0
 10
10.0
 20
93.822195106696867
 30
0.0
 11
12.0
 21
93.822195106696867
 31
0.0
  0
LINE
  5
6066
  8
0
 10
10.0
 20
94.822195106696924
 30
0.0
 11
11.0
 21
94.822195106696924
 31
0.0
  0
LINE
  5
6067
  8
0
 10
10.0
 20
96.822195106696924
 30
0.0
 11
11.0
 21
96.822195106696924
 31
0.0
  0
LINE
  5
6068
  8
0
 10
10.0
 20
95.822195106696924
 30
0.0
 11
11.0
 21
95.822195106696924
 31
0.0
  0
TEXT
  5
6069
  8
0
 10
14.99708977370633
 20
87.822195106696896
 30
0.0
 40
2.0
  1
22
 72
     2
 11
18.330423107039671
 21
88.822195106696896
 31
0.0
 73
     2
  0
TEXT
  5
606A
  8
0
 10
15.663756440373
 20
97.822195106696924
 30
0.0
 40
2.0
  1
21
 72
     2
 11
18.330423107039671
 21
98.822195106696924
 31
0.0
 73
     2
  0
LINE
  5
606B
  8
0
 10
10.0
 20
107.8221951066967
 30
0.0
 11
11.0
 21
107.8221951066967
 31
0.0
  0
LINE
  5
606C
  8
0
 10
10.0
 20
106.8221951066967
 30
0.0
 11
11.0
 21
106.8221951066967
 31
0.0
  0
LINE
  5
606D
  8
0
 10
10.0
 20
102.8221951066969
 30
0.0
 11
11.0
 21
102.8221951066969
 31
0.0
  0
LINE
  5
606E
  8
0
 10
10.0
 20
103.8221951066969
 30
0.0
 11
12.0
 21
103.8221951066969
 31
0.0
  0
LINE
  5
606F
  8
0
 10
10.0
 20
105.8221951066967
 30
0.0
 11
11.0
 21
105.8221951066967
 31
0.0
  0
LINE
  5
6070
  8
0
 10
10.0
 20
104.8221951066969
 30
0.0
 11
11.0
 21
104.8221951066969
 31
0.0
  0
LINE
  5
6071
  8
0
 10
288.0
 20
9.8221951066969062
 30
0.0
 11
287.0
 21
9.8221951066969062
 31
0.0
  0
LINE
  5
6072
  8
0
 10
288.0
 20
18.822195106696888
 30
0.0
 11
285.0
 21
18.822195106696888
 31
0.0
  0
LINE
  5
6073
  8
0
 10
288.0
 20
17.822195106696899
 30
0.0
 11
287.0
 21
17.822195106696899
 31
0.0
  0
LINE
  5
6074
  8
0
 10
288.0
 20
16.82219510669691
 30
0.0
 11
287.0
 21
16.82219510669691
 31
0.0
  0
LINE
  5
6075
  8
0
 10
288.0
 20
15.822195106696901
 30
0.0
 11
287.0
 21
15.822195106696901
 31
0.0
  0
LINE
  5
6076
  8
0
 10
288.0
 20
14.82219510669691
 30
0.0
 11
287.0
 21
14.82219510669691
 31
0.0
  0
LINE
  5
6077
  8
0
 10
288.0
 20
13.82219510669691
 30
0.0
 11
286.0
 21
13.82219510669691
 31
0.0
  0
LINE
  5
6078
  8
0
 10
288.0
 20
10.82219510669691
 30
0.0
 11
287.0
 21
10.82219510669691
 31
0.0
  0
LINE
  5
6079
  8
0
 10
288.0
 20
11.82219510669691
 30
0.0
 11
287.0
 21
11.82219510669691
 31
0.0
  0
LINE
  5
607A
  8
0
 10
288.0
 20
12.822195106696901
 30
0.0
 11
287.0
 21
12.822195106696901
 31
0.0
  0
LINE
  5
607B
  8
0
 10
288.0
 20
26.82219510669691
 30
0.0
 11
287.0
 21
26.82219510669691
 31
0.0
  0
LINE
  5
607C
  8
0
 10
288.0
 20
25.82219510669691
 30
0.0
 11
287.0
 21
25.82219510669691
 31
0.0
  0
LINE
  5
607D
  8
0
 10
288.0
 20
24.82219510669691
 30
0.0
 11
287.0
 21
24.82219510669691
 31
0.0
  0
LINE
  5
607E
  8
0
 10
288.0
 20
23.82219510669691
 30
0.0
 11
286.0
 21
23.82219510669691
 31
0.0
  0
LINE
  5
607F
  8
0
 10
288.0
 20
21.822195106696888
 30
0.0
 11
287.0
 21
21.822195106696888
 31
0.0
  0
LINE
  5
6080
  8
0
 10
288.0
 20
22.822195106696888
 30
0.0
 11
287.0
 21
22.822195106696888
 31
0.0
  0
LINE
  5
6081
  8
0
 10
288.0
 20
19.82219510669691
 30
0.0
 11
287.0
 21
19.82219510669691
 31
0.0
  0
LINE
  5
6082
  8
0
 10
288.0
 20
20.82219510669691
 30
0.0
 11
287.0
 21
20.82219510669691
 31
0.0
  0
LINE
  5
6083
  8
0
 10
288.0
 20
28.822195106696888
 30
0.0
 11
285.0
 21
28.822195106696888
 31
0.0
  0
LINE
  5
6084
  8
0
 10
288.0
 20
35.822195106696903
 30
0.0
 11
287.0
 21
35.822195106696903
 31
0.0
  0
LINE
  5
6085
  8
0
 10
288.0
 20
34.82219510669691
 30
0.0
 11
287.0
 21
34.82219510669691
 31
0.0
  0
LINE
  5
6086
  8
0
 10
288.0
 20
32.822195106696903
 30
0.0
 11
287.0
 21
32.822195106696903
 31
0.0
  0
LINE
  5
6087
  8
0
 10
288.0
 20
33.82219510669691
 30
0.0
 11
286.0
 21
33.82219510669691
 31
0.0
  0
LINE
  5
6088
  8
0
 10
288.0
 20
27.822195106696888
 30
0.0
 11
287.0
 21
27.822195106696888
 31
0.0
  0
LINE
  5
6089
  8
0
 10
288.0
 20
30.82219510669691
 30
0.0
 11
287.0
 21
30.82219510669691
 31
0.0
  0
LINE
  5
608A
  8
0
 10
288.0
 20
31.82219510669691
 30
0.0
 11
287.0
 21
31.82219510669691
 31
0.0
  0
LINE
  5
608B
  8
0
 10
288.0
 20
29.82219510669691
 30
0.0
 11
287.0
 21
29.82219510669691
 31
0.0
  0
LINE
  5
608C
  8
0
 10
288.0
 20
38.822195106696888
 30
0.0
 11
285.0
 21
38.822195106696888
 31
0.0
  0
LINE
  5
608D
  8
0
 10
288.0
 20
41.822195106696903
 30
0.0
 11
287.0
 21
41.822195106696903
 31
0.0
  0
LINE
  5
608E
  8
0
 10
288.0
 20
42.822195106696903
 30
0.0
 11
287.0
 21
42.822195106696903
 31
0.0
  0
LINE
  5
608F
  8
0
 10
288.0
 20
44.82219510669691
 30
0.0
 11
287.0
 21
44.82219510669691
 31
0.0
  0
LINE
  5
6090
  8
0
 10
288.0
 20
43.82219510669691
 30
0.0
 11
286.0
 21
43.82219510669691
 31
0.0
  0
LINE
  5
6091
  8
0
 10
288.0
 20
39.822195106696903
 30
0.0
 11
287.0
 21
39.822195106696903
 31
0.0
  0
LINE
  5
6092
  8
0
 10
288.0
 20
40.822195106696888
 30
0.0
 11
287.0
 21
40.822195106696888
 31
0.0
  0
LINE
  5
6093
  8
0
 10
288.0
 20
37.822195106696888
 30
0.0
 11
287.0
 21
37.822195106696888
 31
0.0
  0
LINE
  5
6094
  8
0
 10
288.0
 20
36.822195106696903
 30
0.0
 11
287.0
 21
36.822195106696903
 31
0.0
  0
LINE
  5
6095
  8
0
 10
288.0
 20
48.82219510669691
 30
0.0
 11
285.0
 21
48.82219510669691
 31
0.0
  0
LINE
  5
6096
  8
0
 10
288.0
 20
49.82219510669691
 30
0.0
 11
287.0
 21
49.82219510669691
 31
0.0
  0
LINE
  5
6097
  8
0
 10
288.0
 20
50.82219510669691
 30
0.0
 11
287.0
 21
50.82219510669691
 31
0.0
  0
LINE
  5
6098
  8
0
 10
288.0
 20
51.82219510669691
 30
0.0
 11
287.0
 21
51.82219510669691
 31
0.0
  0
LINE
  5
6099
  8
0
 10
288.0
 20
52.822195106696903
 30
0.0
 11
287.0
 21
52.822195106696903
 31
0.0
  0
LINE
  5
609A
  8
0
 10
288.0
 20
47.822195106696903
 30
0.0
 11
287.0
 21
47.822195106696903
 31
0.0
  0
LINE
  5
609B
  8
0
 10
288.0
 20
46.82219510669691
 30
0.0
 11
287.0
 21
46.82219510669691
 31
0.0
  0
LINE
  5
609C
  8
0
 10
288.0
 20
45.822195106696903
 30
0.0
 11
287.0
 21
45.822195106696903
 31
0.0
  0
LINE
  5
609D
  8
0
 10
288.0
 20
58.82219510669691
 30
0.0
 11
285.0
 21
58.82219510669691
 31
0.0
  0
LINE
  5
609E
  8
0
 10
288.0
 20
59.82219510669691
 30
0.0
 11
287.0
 21
59.82219510669691
 31
0.0
  0
LINE
  5
609F
  8
0
 10
288.0
 20
60.82219510669691
 30
0.0
 11
287.0
 21
60.82219510669691
 31
0.0
  0
LINE
  5
60A0
  8
0
 10
288.0
 20
61.82219510669691
 30
0.0
 11
287.0
 21
61.82219510669691
 31
0.0
  0
LINE
  5
60A1
  8
0
 10
288.0
 20
53.82219510669691
 30
0.0
 11
286.0
 21
53.82219510669691
 31
0.0
  0
LINE
  5
60A2
  8
0
 10
288.0
 20
57.822195106696903
 30
0.0
 11
287.0
 21
57.822195106696903
 31
0.0
  0
LINE
  5
60A3
  8
0
 10
288.0
 20
56.82219510669691
 30
0.0
 11
287.0
 21
56.82219510669691
 31
0.0
  0
LINE
  5
60A4
  8
0
 10
288.0
 20
55.82219510669691
 30
0.0
 11
287.0
 21
55.82219510669691
 31
0.0
  0
LINE
  5
60A5
  8
0
 10
288.0
 20
54.82219510669691
 30
0.0
 11
287.0
 21
54.82219510669691
 31
0.0
  0
LINE
  5
60A6
  8
0
 10
288.0
 20
68.82219510669691
 30
0.0
 11
285.0
 21
68.82219510669691
 31
0.0
  0
LINE
  5
60A7
  8
0
 10
288.0
 20
67.822195106696896
 30
0.0
 11
287.0
 21
67.822195106696896
 31
0.0
  0
LINE
  5
60A8
  8
0
 10
288.0
 20
69.82219510669691
 30
0.0
 11
287.0
 21
69.82219510669691
 31
0.0
  0
LINE
  5
60A9
  8
0
 10
288.0
 20
70.82219510669691
 30
0.0
 11
287.0
 21
70.82219510669691
 31
0.0
  0
LINE
  5
60AA
  8
0
 10
288.0
 20
62.822195106696903
 30
0.0
 11
287.0
 21
62.822195106696903
 31
0.0
  0
LINE
  5
60AB
  8
0
 10
288.0
 20
66.82219510669691
 30
0.0
 11
287.0
 21
66.82219510669691
 31
0.0
  0
LINE
  5
60AC
  8
0
 10
288.0
 20
65.82219510669691
 30
0.0
 11
287.0
 21
65.82219510669691
 31
0.0
  0
LINE
  5
60AD
  8
0
 10
288.0
 20
64.82219510669691
 30
0.0
 11
287.0
 21
64.82219510669691
 31
0.0
  0
LINE
  5
60AE
  8
0
 10
288.0
 20
63.82219510669691
 30
0.0
 11
286.0
 21
63.82219510669691
 31
0.0
  0
LINE
  5
60AF
  8
0
 10
288.0
 20
78.82219510669691
 30
0.0
 11
285.0
 21
78.82219510669691
 31
0.0
  0
LINE
  5
60B0
  8
0
 10
288.0
 20
79.82219510669691
 30
0.0
 11
287.0
 21
79.82219510669691
 31
0.0
  0
LINE
  5
60B1
  8
0
 10
288.0
 20
77.822195106696896
 30
0.0
 11
287.0
 21
77.822195106696896
 31
0.0
  0
LINE
  5
60B2
  8
0
 10
288.0
 20
76.82219510669691
 30
0.0
 11
287.0
 21
76.82219510669691
 31
0.0
  0
LINE
  5
60B3
  8
0
 10
288.0
 20
75.82219510669691
 30
0.0
 11
287.0
 21
75.82219510669691
 31
0.0
  0
LINE
  5
60B4
  8
0
 10
288.0
 20
74.82219510669691
 30
0.0
 11
287.0
 21
74.82219510669691
 31
0.0
  0
LINE
  5
60B5
  8
0
 10
288.0
 20
71.82219510669691
 30
0.0
 11
287.0
 21
71.82219510669691
 31
0.0
  0
LINE
  5
60B6
  8
0
 10
288.0
 20
72.822195106696896
 30
0.0
 11
287.0
 21
72.822195106696896
 31
0.0
  0
LINE
  5
60B7
  8
0
 10
288.0
 20
73.82219510669691
 30
0.0
 11
286.0
 21
73.82219510669691
 31
0.0
  0
LINE
  5
60B8
  8
0
 10
288.0
 20
87.822195106696896
 30
0.0
 11
287.0
 21
87.822195106696896
 31
0.0
  0
LINE
  5
60B9
  8
0
 10
288.0
 20
85.82219510669691
 30
0.0
 11
287.0
 21
85.82219510669691
 31
0.0
  0
LINE
  5
60BA
  8
0
 10
288.0
 20
84.822195106696924
 30
0.0
 11
287.0
 21
84.822195106696924
 31
0.0
  0
LINE
  5
60BB
  8
0
 10
288.0
 20
86.82219510669691
 30
0.0
 11
287.0
 21
86.82219510669691
 31
0.0
  0
LINE
  5
60BC
  8
0
 10
288.0
 20
80.82219510669691
 30
0.0
 11
287.0
 21
80.82219510669691
 31
0.0
  0
LINE
  5
60BD
  8
0
 10
288.0
 20
81.82219510669691
 30
0.0
 11
287.0
 21
81.82219510669691
 31
0.0
  0
LINE
  5
60BE
  8
0
 10
288.0
 20
82.822195106696896
 30
0.0
 11
287.0
 21
82.822195106696896
 31
0.0
  0
LINE
  5
60BF
  8
0
 10
288.0
 20
83.822195106696896
 30
0.0
 11
286.0
 21
83.822195106696896
 31
0.0
  0
LINE
  5
60C0
  8
0
 10
288.0
 20
88.822195106696896
 30
0.0
 11
285.0
 21
88.822195106696896
 31
0.0
  0
LINE
  5
60C1
  8
0
 10
288.0
 20
95.822195106696924
 30
0.0
 11
287.0
 21
95.822195106696924
 31
0.0
  0
LINE
  5
60C2
  8
0
 10
288.0
 20
96.822195106696924
 30
0.0
 11
287.0
 21
96.822195106696924
 31
0.0
  0
LINE
  5
60C3
  8
0
 10
288.0
 20
94.822195106696924
 30
0.0
 11
287.0
 21
94.822195106696924
 31
0.0
  0
LINE
  5
60C4
  8
0
 10
288.0
 20
93.822195106696867
 30
0.0
 11
286.0
 21
93.822195106696867
 31
0.0
  0
LINE
  5
60C5
  8
0
 10
288.0
 20
89.822195106696924
 30
0.0
 11
287.0
 21
89.822195106696924
 31
0.0
  0
LINE
  5
60C6
  8
0
 10
288.0
 20
90.822195106696924
 30
0.0
 11
287.0
 21
90.822195106696924
 31
0.0
  0
LINE
  5
60C7
  8
0
 10
288.0
 20
91.822195106696924
 30
0.0
 11
287.0
 21
91.822195106696924
 31
0.0
  0
LINE
  5
60C8
  8
0
 10
288.0
 20
92.822195106696867
 30
0.0
 11
287.0
 21
92.822195106696867
 31
0.0
  0
LINE
  5
60C9
  8
0
 10
288.0
 20
98.822195106696924
 30
0.0
 11
285.0
 21
98.822195106696924
 31
0.0
  0
LINE
  5
60CA
  8
0
 10
288.0
 20
104.8221951066969
 30
0.0
 11
287.0
 21
104.8221951066969
 31
0.0
  0
LINE
  5
60CB
  8
0
 10
288.0
 20
105.8221951066967
 30
0.0
 11
287.0
 21
105.8221951066967
 31
0.0
  0
LINE
  5
60CC
  8
0
 10
288.0
 20
103.8221951066969
 30
0.0
 11
286.0
 21
103.8221951066969
 31
0.0
  0
LINE
  5
60CD
  8
0
 10
288.0
 20
102.8221951066969
 30
0.0
 11
287.0
 21
102.8221951066969
 31
0.0
  0
LINE
  5
60CE
  8
0
 10
288.0
 20
97.822195106696867
 30
0.0
 11
287.0
 21
97.822195106696867
 31
0.0
  0
LINE
  5
60CF
  8
0
 10
288.0
 20
101.8221951066969
 30
0.0
 11
287.0
 21
101.8221951066969
 31
0.0
  0
LINE
  5
60D0
  8
0
 10
288.0
 20
100.8221951066969
 30
0.0
 11
287.0
 21
100.8221951066969
 31
0.0
  0
LINE
  5
60D1
  8
0
 10
288.0
 20
99.822195106696924
 30
0.0
 11
287.0
 21
99.822195106696924
 31
0.0
  0
LINE
  5
60D2
  8
0
 10
288.0
 20
108.8221951066967
 30
0.0
 11
285.0
 21
108.8221951066967
 31
0.0
  0
LINE
  5
60D3
  8
0
 10
288.0
 20
106.8221951066967
 30
0.0
 11
287.0
 21
106.8221951066967
 31
0.0
  0
LINE
  5
60D4
  8
0
 10
288.0
 20
107.8221951066967
 30
0.0
 11
287.0
 21
107.8221951066967
 31
0.0
  0
LINE
  5
60D5
  8
0
 10
288.0
 20
112.8221951066967
 30
0.0
 11
287.0
 21
112.8221951066967
 31
0.0
  0
LINE
  5
60D6
  8
0
 10
288.0
 20
111.8221951066967
 30
0.0
 11
287.0
 21
111.8221951066967
 31
0.0
  0
LINE
  5
60D7
  8
0
 10
288.0
 20
110.8221951066967
 30
0.0
 11
287.0
 21
110.8221951066967
 31
0.0
  0
LINE
  5
60D8
  8
0
 10
288.0
 20
113.8221951066967
 30
0.0
 11
286.0
 21
113.8221951066967
 31
0.0
  0
LINE
  5
60D9
  8
0
 10
288.0
 20
109.8221951066967
 30
0.0
 11
287.0
 21
109.8221951066967
 31
0.0
  0
LINE
  5
60DA
  8
0
 10
288.0
 20
118.8221951066968
 30
0.0
 11
285.0
 21
118.8221951066968
 31
0.0
  0
LINE
  5
60DB
  8
0
 10
288.0
 20
120.8221951066968
 30
0.0
 11
287.0
 21
120.8221951066968
 31
0.0
  0
LINE
  5
60DC
  8
0
 10
288.0
 20
119.8221951066968
 30
0.0
 11
287.0
 21
119.8221951066968
 31
0.0
  0
LINE
  5
60DD
  8
0
 10
288.0
 20
122.8221951066968
 30
0.0
 11
287.0
 21
122.8221951066968
 31
0.0
  0
LINE
  5
60DE
  8
0
 10
288.0
 20
121.8221951066968
 30
0.0
 11
287.0
 21
121.8221951066968
 31
0.0
  0
LINE
  5
60DF
  8
0
 10
288.0
 20
114.8221951066968
 30
0.0
 11
287.0
 21
114.8221951066968
 31
0.0
  0
LINE
  5
60E0
  8
0
 10
288.0
 20
115.8221951066968
 30
0.0
 11
287.0
 21
115.8221951066968
 31
0.0
  0
LINE
  5
60E1
  8
0
 10
288.0
 20
116.8221951066968
 30
0.0
 11
287.0
 21
116.8221951066968
 31
0.0
  0
LINE
  5
60E2
  8
0
 10
288.0
 20
117.8221951066968
 30
0.0
 11
287.0
 21
117.8221951066968
 31
0.0
  0
LINE
  5
60E3
  8
0
 10
288.0
 20
128.82219510669671
 30
0.0
 11
285.0
 21
128.82219510669671
 31
0.0
  0
LINE
  5
60E4
  8
0
 10
288.0
 20
129.82219510669671
 30
0.0
 11
287.0
 21
129.82219510669671
 31
0.0
  0
LINE
  5
60E5
  8
0
 10
288.0
 20
131.82219510669671
 30
0.0
 11
287.0
 21
131.82219510669671
 31
0.0
  0
LINE
  5
60E6
  8
0
 10
288.0
 20
130.82219510669671
 30
0.0
 11
287.0
 21
130.82219510669671
 31
0.0
  0
LINE
  5
60E7
  8
0
 10
288.0
 20
123.8221951066968
 30
0.0
 11
286.0
 21
123.8221951066968
 31
0.0
  0
LINE
  5
60E8
  8
0
 10
288.0
 20
124.8221951066968
 30
0.0
 11
287.0
 21
124.8221951066968
 31
0.0
  0
LINE
  5
60E9
  8
0
 10
288.0
 20
125.8221951066967
 30
0.0
 11
287.0
 21
125.8221951066967
 31
0.0
  0
LINE
  5
60EA
  8
0
 10
288.0
 20
126.8221951066967
 30
0.0
 11
287.0
 21
126.8221951066967
 31
0.0
  0
LINE
  5
60EB
  8
0
 10
288.0
 20
127.8221951066967
 30
0.0
 11
287.0
 21
127.8221951066967
 31
0.0
  0
LINE
  5
60EC
  8
0
 10
288.0
 20
138.82219510669671
 30
0.0
 11
285.0
 21
138.82219510669671
 31
0.0
  0
LINE
  5
60ED
  8
0
 10
288.0
 20
133.82219510669671
 30
0.0
 11
286.0
 21
133.82219510669671
 31
0.0
  0
LINE
  5
60EE
  8
0
 10
288.0
 20
132.82219510669671
 30
0.0
 11
287.0
 21
132.82219510669671
 31
0.0
  0
LINE
  5
60EF
  8
0
 10
288.0
 20
134.82219510669671
 30
0.0
 11
287.0
 21
134.82219510669671
 31
0.0
  0
LINE
  5
60F0
  8
0
 10
288.0
 20
135.82219510669671
 30
0.0
 11
287.0
 21
135.82219510669671
 31
0.0
  0
LINE
  5
60F1
  8
0
 10
288.0
 20
136.82219510669671
 30
0.0
 11
287.0
 21
136.82219510669671
 31
0.0
  0
LINE
  5
60F2
  8
0
 10
288.0
 20
137.82219510669671
 30
0.0
 11
287.0
 21
137.82219510669671
 31
0.0
  0
LINE
  5
60F3
  8
0
 10
288.0
 20
140.8221951066968
 30
0.0
 11
287.0
 21
140.8221951066968
 31
0.0
  0
LINE
  5
60F4
  8
0
 10
288.0
 20
139.82219510669671
 30
0.0
 11
287.0
 21
139.82219510669671
 31
0.0
  0
LINE
  5
60F5
  8
0
 10
288.0
 20
148.8221951066968
 30
0.0
 11
285.0
 21
148.8221951066968
 31
0.0
  0
LINE
  5
60F6
  8
0
 10
288.0
 20
145.8221951066968
 30
0.0
 11
287.0
 21
145.8221951066968
 31
0.0
  0
LINE
  5
60F7
  8
0
 10
288.0
 20
146.8221951066968
 30
0.0
 11
287.0
 21
146.8221951066968
 31
0.0
  0
LINE
  5
60F8
  8
0
 10
288.0
 20
147.8221951066968
 30
0.0
 11
287.0
 21
147.8221951066968
 31
0.0
  0
LINE
  5
60F9
  8
0
 10
288.0
 20
143.8221951066968
 30
0.0
 11
286.0
 21
143.8221951066968
 31
0.0
  0
LINE
  5
60FA
  8
0
 10
288.0
 20
144.8221951066968
 30
0.0
 11
287.0
 21
144.8221951066968
 31
0.0
  0
LINE
  5
60FB
  8
0
 10
288.0
 20
142.8221951066968
 30
0.0
 11
287.0
 21
142.8221951066968
 31
0.0
  0
LINE
  5
60FC
  8
0
 10
288.0
 20
141.8221951066968
 30
0.0
 11
287.0
 21
141.8221951066968
 31
0.0
  0
LINE
  5
60FD
  8
0
 10
288.0
 20
154.8221951066968
 30
0.0
 11
287.0
 21
154.8221951066968
 31
0.0
  0
LINE
  5
60FE
  8
0
 10
288.0
 20
155.8221951066968
 30
0.0
 11
287.0
 21
155.8221951066968
 31
0.0
  0
LINE
  5
60FF
  8
0
 10
288.0
 20
156.8221951066968
 30
0.0
 11
287.0
 21
156.8221951066968
 31
0.0
  0
LINE
  5
6100
  8
0
 10
288.0
 20
157.8221951066968
 30
0.0
 11
287.0
 21
157.8221951066968
 31
0.0
  0
LINE
  5
6101
  8
0
 10
288.0
 20
153.8221951066968
 30
0.0
 11
286.0
 21
153.8221951066968
 31
0.0
  0
LINE
  5
6102
  8
0
 10
288.0
 20
152.8221951066968
 30
0.0
 11
287.0
 21
152.8221951066968
 31
0.0
  0
LINE
  5
6103
  8
0
 10
288.0
 20
151.8221951066968
 30
0.0
 11
287.0
 21
151.8221951066968
 31
0.0
  0
LINE
  5
6104
  8
0
 10
288.0
 20
150.8221951066968
 30
0.0
 11
287.0
 21
150.8221951066968
 31
0.0
  0
LINE
  5
6105
  8
0
 10
288.0
 20
149.8221951066968
 30
0.0
 11
287.0
 21
149.8221951066968
 31
0.0
  0
LINE
  5
6106
  8
0
 10
288.0
 20
158.8221951066968
 30
0.0
 11
285.0
 21
158.8221951066968
 31
0.0
  0
LINE
  5
6107
  8
0
 10
288.0
 20
163.8221951066968
 30
0.0
 11
286.0
 21
163.8221951066968
 31
0.0
  0
LINE
  5
6108
  8
0
 10
288.0
 20
164.8221951066968
 30
0.0
 11
287.0
 21
164.8221951066968
 31
0.0
  0
LINE
  5
6109
  8
0
 10
288.0
 20
165.8221951066968
 30
0.0
 11
287.0
 21
165.8221951066968
 31
0.0
  0
LINE
  5
610A
  8
0
 10
288.0
 20
166.8221951066968
 30
0.0
 11
287.0
 21
166.8221951066968
 31
0.0
  0
LINE
  5
610B
  8
0
 10
288.0
 20
161.8221951066968
 30
0.0
 11
287.0
 21
161.8221951066968
 31
0.0
  0
LINE
  5
610C
  8
0
 10
288.0
 20
160.8221951066968
 30
0.0
 11
287.0
 21
160.8221951066968
 31
0.0
  0
LINE
  5
610D
  8
0
 10
288.0
 20
159.8221951066968
 30
0.0
 11
287.0
 21
159.8221951066968
 31
0.0
  0
LINE
  5
610E
  8
0
 10
288.0
 20
162.8221951066968
 30
0.0
 11
287.0
 21
162.8221951066968
 31
0.0
  0
LINE
  5
610F
  8
0
 10
288.0
 20
168.8221951066968
 30
0.0
 11
285.0
 21
168.8221951066968
 31
0.0
  0
LINE
  5
6110
  8
0
 10
288.0
 20
173.8221951066968
 30
0.0
 11
286.0
 21
173.8221951066968
 31
0.0
  0
LINE
  5
6111
  8
0
 10
288.0
 20
172.8221951066968
 30
0.0
 11
287.0
 21
172.8221951066968
 31
0.0
  0
LINE
  5
6112
  8
0
 10
288.0
 20
171.8221951066968
 30
0.0
 11
287.0
 21
171.8221951066968
 31
0.0
  0
LINE
  5
6113
  8
0
 10
288.0
 20
174.8221951066968
 30
0.0
 11
287.0
 21
174.8221951066968
 31
0.0
  0
LINE
  5
6114
  8
0
 10
288.0
 20
170.8221951066968
 30
0.0
 11
287.0
 21
170.8221951066968
 31
0.0
  0
LINE
  5
6115
  8
0
 10
288.0
 20
169.8221951066968
 30
0.0
 11
287.0
 21
169.8221951066968
 31
0.0
  0
LINE
  5
6116
  8
0
 10
288.0
 20
167.8221951066968
 30
0.0
 11
287.0
 21
167.8221951066968
 31
0.0
  0
LINE
  5
6117
  8
0
 10
288.0
 20
178.8221951066968
 30
0.0
 11
285.0
 21
178.8221951066968
 31
0.0
  0
LINE
  5
6118
  8
0
 10
288.0
 20
183.8221951066968
 30
0.0
 11
286.0
 21
183.8221951066968
 31
0.0
  0
LINE
  5
6119
  8
0
 10
288.0
 20
182.8221951066968
 30
0.0
 11
287.0
 21
182.8221951066968
 31
0.0
  0
LINE
  5
611A
  8
0
 10
288.0
 20
181.8221951066968
 30
0.0
 11
287.0
 21
181.8221951066968
 31
0.0
  0
LINE
  5
611B
  8
0
 10
288.0
 20
180.8221951066968
 30
0.0
 11
287.0
 21
180.8221951066968
 31
0.0
  0
LINE
  5
611C
  8
0
 10
288.0
 20
175.8221951066968
 30
0.0
 11
287.0
 21
175.8221951066968
 31
0.0
  0
LINE
  5
611D
  8
0
 10
288.0
 20
176.8221951066968
 30
0.0
 11
287.0
 21
176.8221951066968
 31
0.0
  0
LINE
  5
611E
  8
0
 10
288.0
 20
177.8221951066968
 30
0.0
 11
287.0
 21
177.8221951066968
 31
0.0
  0
LINE
  5
611F
  8
0
 10
288.0
 20
179.8221951066968
 30
0.0
 11
287.0
 21
179.8221951066968
 31
0.0
  0
LINE
  5
6120
  8
0
 10
288.0
 20
188.8221951066968
 30
0.0
 11
285.0
 21
188.8221951066968
 31
0.0
  0
LINE
  5
6121
  8
0
 10
288.0
 20
192.8221951066968
 30
0.0
 11
287.0
 21
192.8221951066968
 31
0.0
  0
LINE
  5
6122
  8
0
 10
288.0
 20
191.8221951066968
 30
0.0
 11
287.0
 21
191.8221951066968
 31
0.0
  0
LINE
  5
6123
  8
0
 10
288.0
 20
190.8221951066968
 30
0.0
 11
287.0
 21
190.8221951066968
 31
0.0
  0
LINE
  5
6124
  8
0
 10
288.0
 20
189.8221951066968
 30
0.0
 11
287.0
 21
189.8221951066968
 31
0.0
  0
LINE
  5
6125
  8
0
 10
288.0
 20
186.8221951066968
 30
0.0
 11
287.0
 21
186.8221951066968
 31
0.0
  0
LINE
  5
6126
  8
0
 10
288.0
 20
184.8221951066968
 30
0.0
 11
287.0
 21
184.8221951066968
 31
0.0
  0
LINE
  5
6127
  8
0
 10
288.0
 20
185.8221951066968
 30
0.0
 11
287.0
 21
185.8221951066968
 31
0.0
  0
LINE
  5
6128
  8
0
 10
288.0
 20
187.8221951066968
 30
0.0
 11
287.0
 21
187.8221951066968
 31
0.0
  0
LINE
  5
6129
  8
0
 10
288.0
 20
198.8221951066968
 30
0.0
 11
285.0
 21
198.8221951066968
 31
0.0
  0
LINE
  5
612A
  8
0
 10
288.0
 20
199.8221951066968
 30
0.0
 11
287.0
 21
199.8221951066968
 31
0.0
  0
LINE
  5
612B
  8
0
 10
288.0
 20
200.8221951066968
 30
0.0
 11
287.0
 21
200.8221951066968
 31
0.0
  0
LINE
  5
612C
  8
0
 10
288.0
 20
201.8221951066968
 30
0.0
 11
287.0
 21
201.8221951066968
 31
0.0
  0
LINE
  5
612D
  8
0
 10
288.0
 20
197.8221951066968
 30
0.0
 11
287.0
 21
197.8221951066968
 31
0.0
  0
LINE
  5
612E
  8
0
 10
288.0
 20
193.8221951066968
 30
0.0
 11
286.0
 21
193.8221951066968
 31
0.0
  0
LINE
  5
612F
  8
0
 10
288.0
 20
194.82219510669691
 30
0.0
 11
287.0
 21
194.82219510669691
 31
0.0
  0
LINE
  5
6130
  8
0
 10
288.0
 20
196.8221951066968
 30
0.0
 11
287.0
 21
196.8221951066968
 31
0.0
  0
LINE
  5
6131
  8
0
 10
288.0
 20
195.8221951066968
 30
0.0
 11
287.0
 21
195.8221951066968
 31
0.0
  0
LINE
  5
6132
  8
0
 10
288.0
 20
208.82219510669691
 30
0.0
 11
285.0
 21
208.82219510669691
 31
0.0
  0
LINE
  5
6133
  8
0
 10
288.0
 20
207.8221951066968
 30
0.0
 11
287.0
 21
207.8221951066968
 31
0.0
  0
LINE
  5
6134
  8
0
 10
288.0
 20
206.82219510669691
 30
0.0
 11
287.0
 21
206.82219510669691
 31
0.0
  0
LINE
  5
6135
  8
0
 10
288.0
 20
202.82219510669691
 30
0.0
 11
287.0
 21
202.82219510669691
 31
0.0
  0
LINE
  5
6136
  8
0
 10
288.0
 20
203.8221951066968
 30
0.0
 11
286.0
 21
203.8221951066968
 31
0.0
  0
LINE
  5
6137
  8
0
 10
288.0
 20
205.8221951066968
 30
0.0
 11
287.0
 21
205.8221951066968
 31
0.0
  0
LINE
  5
6138
  8
0
 10
288.0
 20
204.82219510669691
 30
0.0
 11
287.0
 21
204.82219510669691
 31
0.0
  0
LINE
  5
6139
  8
0
 10
288.0
 20
209.8221951066968
 30
0.0
 11
287.0
 21
209.8221951066968
 31
0.0
  0
LINE
  5
613A
  8
0
 10
288.0
 20
218.8221951066968
 30
0.0
 11
285.0
 21
218.8221951066968
 31
0.0
  0
LINE
  5
613B
  8
0
 10
288.0
 20
217.8221951066968
 30
0.0
 11
287.0
 21
217.8221951066968
 31
0.0
  0
LINE
  5
613C
  8
0
 10
288.0
 20
216.8221951066968
 30
0.0
 11
287.0
 21
216.8221951066968
 31
0.0
  0
LINE
  5
613D
  8
0
 10
288.0
 20
215.8221951066968
 30
0.0
 11
287.0
 21
215.8221951066968
 31
0.0
  0
LINE
  5
613E
  8
0
 10
288.0
 20
214.8221951066968
 30
0.0
 11
287.0
 21
214.8221951066968
 31
0.0
  0
LINE
  5
613F
  8
0
 10
288.0
 20
213.8221951066968
 30
0.0
 11
286.0
 21
213.8221951066968
 31
0.0
  0
LINE
  5
6140
  8
0
 10
288.0
 20
210.8221951066968
 30
0.0
 11
287.0
 21
210.8221951066968
 31
0.0
  0
LINE
  5
6141
  8
0
 10
288.0
 20
211.8221951066968
 30
0.0
 11
287.0
 21
211.8221951066968
 31
0.0
  0
LINE
  5
6142
  8
0
 10
288.0
 20
212.8221951066968
 30
0.0
 11
287.0
 21
212.8221951066968
 31
0.0
  0
LINE
  5
6143
  8
0
 10
288.0
 20
227.82219510669691
 30
0.0
 11
287.0
 21
227.82219510669691
 31
0.0
  0
LINE
  5
6144
  8
0
 10
288.0
 20
226.8221951066968
 30
0.0
 11
287.0
 21
226.8221951066968
 31
0.0
  0
LINE
  5
6145
  8
0
 10
288.0
 20
225.8221951066968
 30
0.0
 11
287.0
 21
225.8221951066968
 31
0.0
  0
LINE
  5
6146
  8
0
 10
288.0
 20
224.8221951066968
 30
0.0
 11
287.0
 21
224.8221951066968
 31
0.0
  0
LINE
  5
6147
  8
0
 10
288.0
 20
221.8221951066968
 30
0.0
 11
287.0
 21
221.8221951066968
 31
0.0
  0
LINE
  5
6148
  8
0
 10
288.0
 20
222.8221951066968
 30
0.0
 11
287.0
 21
222.8221951066968
 31
0.0
  0
LINE
  5
6149
  8
0
 10
288.0
 20
223.8221951066968
 30
0.0
 11
286.0
 21
223.8221951066968
 31
0.0
  0
LINE
  5
614A
  8
0
 10
288.0
 20
219.8221951066968
 30
0.0
 11
287.0
 21
219.8221951066968
 31
0.0
  0
LINE
  5
614B
  8
0
 10
288.0
 20
220.8221951066968
 30
0.0
 11
287.0
 21
220.8221951066968
 31
0.0
  0
LINE
  5
614C
  8
0
 10
288.0
 20
228.8221951066968
 30
0.0
 11
285.0
 21
228.8221951066968
 31
0.0
  0
LINE
  5
614D
  8
0
 10
288.0
 20
230.8221951066968
 30
0.0
 11
287.0
 21
230.8221951066968
 31
0.0
  0
LINE
  5
614E
  8
0
 10
288.0
 20
231.82219510669691
 30
0.0
 11
287.0
 21
231.82219510669691
 31
0.0
  0
LINE
  5
614F
  8
0
 10
288.0
 20
235.82219510669691
 30
0.0
 11
287.0
 21
235.82219510669691
 31
0.0
  0
LINE
  5
6150
  8
0
 10
288.0
 20
234.8221951066968
 30
0.0
 11
287.0
 21
234.8221951066968
 31
0.0
  0
LINE
  5
6151
  8
0
 10
288.0
 20
232.8221951066968
 30
0.0
 11
287.0
 21
232.8221951066968
 31
0.0
  0
LINE
  5
6152
  8
0
 10
288.0
 20
233.82219510669691
 30
0.0
 11
286.0
 21
233.82219510669691
 31
0.0
  0
LINE
  5
6153
  8
0
 10
288.0
 20
229.82219510669691
 30
0.0
 11
287.0
 21
229.82219510669691
 31
0.0
  0
LINE
  5
6154
  8
0
 10
288.0
 20
238.8221951066968
 30
0.0
 11
285.0
 21
238.8221951066968
 31
0.0
  0
LINE
  5
6155
  8
0
 10
288.0
 20
239.8221951066968
 30
0.0
 11
287.0
 21
239.8221951066968
 31
0.0
  0
LINE
  5
6156
  8
0
 10
288.0
 20
240.8221951066968
 30
0.0
 11
287.0
 21
240.8221951066968
 31
0.0
  0
LINE
  5
6157
  8
0
 10
288.0
 20
241.8221951066968
 30
0.0
 11
287.0
 21
241.8221951066968
 31
0.0
  0
LINE
  5
6158
  8
0
 10
288.0
 20
242.8221951066968
 30
0.0
 11
287.0
 21
242.8221951066968
 31
0.0
  0
LINE
  5
6159
  8
0
 10
288.0
 20
244.8221951066968
 30
0.0
 11
287.0
 21
244.8221951066968
 31
0.0
  0
LINE
  5
615A
  8
0
 10
288.0
 20
243.8221951066968
 30
0.0
 11
286.0
 21
243.8221951066968
 31
0.0
  0
LINE
  5
615B
  8
0
 10
288.0
 20
237.8221951066968
 30
0.0
 11
287.0
 21
237.8221951066968
 31
0.0
  0
LINE
  5
615C
  8
0
 10
288.0
 20
236.8221951066968
 30
0.0
 11
287.0
 21
236.8221951066968
 31
0.0
  0
LINE
  5
615D
  8
0
 10
288.0
 20
248.8221951066968
 30
0.0
 11
285.0
 21
248.8221951066968
 31
0.0
  0
LINE
  5
615E
  8
0
 10
288.0
 20
247.8221951066968
 30
0.0
 11
287.0
 21
247.8221951066968
 31
0.0
  0
LINE
  5
615F
  8
0
 10
288.0
 20
246.8221951066968
 30
0.0
 11
287.0
 21
246.8221951066968
 31
0.0
  0
LINE
  5
6160
  8
0
 10
288.0
 20
249.8221951066968
 30
0.0
 11
287.0
 21
249.8221951066968
 31
0.0
  0
LINE
  5
6161
  8
0
 10
288.0
 20
250.8221951066968
 30
0.0
 11
287.0
 21
250.8221951066968
 31
0.0
  0
LINE
  5
6162
  8
0
 10
288.0
 20
251.8221951066968
 30
0.0
 11
287.0
 21
251.8221951066968
 31
0.0
  0
LINE
  5
6163
  8
0
 10
288.0
 20
252.82219510669691
 30
0.0
 11
287.0
 21
252.82219510669691
 31
0.0
  0
LINE
  5
6164
  8
0
 10
288.0
 20
253.8221951066968
 30
0.0
 11
286.0
 21
253.8221951066968
 31
0.0
  0
LINE
  5
6165
  8
0
 10
288.0
 20
245.8221951066968
 30
0.0
 11
287.0
 21
245.8221951066968
 31
0.0
  0
LINE
  5
6166
  8
0
 10
288.0
 20
258.82219510669688
 30
0.0
 11
285.0
 21
258.82219510669688
 31
0.0
  0
LINE
  5
6167
  8
0
 10
288.0
 20
262.82219510669682
 30
0.0
 11
287.0
 21
262.82219510669682
 31
0.0
  0
LINE
  5
6168
  8
0
 10
288.0
 20
257.82219510669682
 30
0.0
 11
287.0
 21
257.82219510669682
 31
0.0
  0
LINE
  5
6169
  8
0
 10
288.0
 20
256.82219510669688
 30
0.0
 11
287.0
 21
256.82219510669688
 31
0.0
  0
LINE
  5
616A
  8
0
 10
288.0
 20
255.8221951066968
 30
0.0
 11
287.0
 21
255.8221951066968
 31
0.0
  0
LINE
  5
616B
  8
0
 10
288.0
 20
254.82219510669691
 30
0.0
 11
287.0
 21
254.82219510669691
 31
0.0
  0
LINE
  5
616C
  8
0
 10
288.0
 20
259.82219510669682
 30
0.0
 11
287.0
 21
259.82219510669682
 31
0.0
  0
LINE
  5
616D
  8
0
 10
288.0
 20
260.82219510669688
 30
0.0
 11
287.0
 21
260.82219510669688
 31
0.0
  0
LINE
  5
616E
  8
0
 10
288.0
 20
261.82219510669682
 30
0.0
 11
287.0
 21
261.82219510669682
 31
0.0
  0
LINE
  5
616F
  8
0
 10
288.0
 20
268.82219510669682
 30
0.0
 11
285.0
 21
268.82219510669682
 31
0.0
  0
LINE
  5
6170
  8
0
 10
288.0
 20
267.82219510669682
 30
0.0
 11
287.0
 21
267.82219510669682
 31
0.0
  0
LINE
  5
6171
  8
0
 10
288.0
 20
266.82219510669682
 30
0.0
 11
287.0
 21
266.82219510669682
 31
0.0
  0
LINE
  5
6172
  8
0
 10
288.0
 20
265.82219510669682
 30
0.0
 11
287.0
 21
265.82219510669682
 31
0.0
  0
LINE
  5
6173
  8
0
 10
288.0
 20
264.82219510669682
 30
0.0
 11
287.0
 21
264.82219510669682
 31
0.0
  0
LINE
  5
6174
  8
0
 10
288.0
 20
269.82219510669682
 30
0.0
 11
287.0
 21
269.82219510669682
 31
0.0
  0
LINE
  5
6175
  8
0
 10
288.0
 20
270.82219510669682
 30
0.0
 11
287.0
 21
270.82219510669682
 31
0.0
  0
LINE
  5
6176
  8
0
 10
288.0
 20
263.82219510669682
 30
0.0
 11
286.0
 21
263.82219510669682
 31
0.0
  0
LINE
  5
6177
  8
0
 10
288.0
 20
278.82219510669682
 30
0.0
 11
285.0
 21
278.82219510669682
 31
0.0
  0
LINE
  5
6178
  8
0
 10
288.0
 20
279.82219510669688
 30
0.0
 11
287.0
 21
279.82219510669688
 31
0.0
  0
LINE
  5
6179
  8
0
 10
288.0
 20
274.82219510669682
 30
0.0
 11
287.0
 21
274.82219510669682
 31
0.0
  0
LINE
  5
617A
  8
0
 10
288.0
 20
271.82219510669682
 30
0.0
 11
287.0
 21
271.82219510669682
 31
0.0
  0
LINE
  5
617B
  8
0
 10
288.0
 20
272.82219510669682
 30
0.0
 11
287.0
 21
272.82219510669682
 31
0.0
  0
LINE
  5
617C
  8
0
 10
288.0
 20
277.82219510669688
 30
0.0
 11
287.0
 21
277.82219510669688
 31
0.0
  0
LINE
  5
617D
  8
0
 10
288.0
 20
276.82219510669682
 30
0.0
 11
287.0
 21
276.82219510669682
 31
0.0
  0
LINE
  5
617E
  8
0
 10
288.0
 20
275.82219510669682
 30
0.0
 11
287.0
 21
275.82219510669682
 31
0.0
  0
LINE
  5
617F
  8
0
 10
288.0
 20
273.82219510669682
 30
0.0
 11
286.0
 21
273.82219510669682
 31
0.0
  0
LINE
  5
6180
  8
0
 10
288.0
 20
288.82219510669682
 30
0.0
 11
285.0
 21
288.82219510669682
 31
0.0
  0
LINE
  5
6181
  8
0
 10
288.0
 20
287.82219510669682
 30
0.0
 11
287.0
 21
287.82219510669682
 31
0.0
  0
LINE
  5
6182
  8
0
 10
288.0
 20
285.82219510669688
 30
0.0
 11
287.0
 21
285.82219510669688
 31
0.0
  0
LINE
  5
6183
  8
0
 10
288.0
 20
284.82219510669682
 30
0.0
 11
287.0
 21
284.82219510669682
 31
0.0
  0
LINE
  5
6184
  8
0
 10
288.0
 20
280.82219510669682
 30
0.0
 11
287.0
 21
280.82219510669682
 31
0.0
  0
LINE
  5
6185
  8
0
 10
288.0
 20
281.82219510669682
 30
0.0
 11
287.0
 21
281.82219510669682
 31
0.0
  0
LINE
  5
6186
  8
0
 10
288.0
 20
282.82219510669682
 30
0.0
 11
287.0
 21
282.82219510669682
 31
0.0
  0
LINE
  5
6187
  8
0
 10
288.0
 20
286.82219510669682
 30
0.0
 11
287.0
 21
286.82219510669682
 31
0.0
  0
LINE
  5
6188
  8
0
 10
288.0
 20
283.82219510669688
 30
0.0
 11
286.0
 21
283.82219510669688
 31
0.0
  0
LINE
  5
6189
  8
0
 10
288.0
 20
295.82219510669682
 30
0.0
 11
287.0
 21
295.82219510669682
 31
0.0
  0
LINE
  5
618A
  8
0
 10
288.0
 20
296.82219510669682
 30
0.0
 11
287.0
 21
296.82219510669682
 31
0.0
  0
LINE
  5
618B
  8
0
 10
288.0
 20
294.82219510669688
 30
0.0
 11
287.0
 21
294.82219510669688
 31
0.0
  0
LINE
  5
618C
  8
0
 10
288.0
 20
289.82219510669682
 30
0.0
 11
287.0
 21
289.82219510669682
 31
0.0
  0
LINE
  5
618D
  8
0
 10
288.0
 20
290.82219510669682
 30
0.0
 11
287.0
 21
290.82219510669682
 31
0.0
  0
LINE
  5
618E
  8
0
 10
288.0
 20
291.82219510669682
 30
0.0
 11
287.0
 21
291.82219510669682
 31
0.0
  0
LINE
  5
618F
  8
0
 10
288.0
 20
292.82219510669682
 30
0.0
 11
287.0
 21
292.82219510669682
 31
0.0
  0
LINE
  5
6190
  8
0
 10
288.0
 20
293.82219510669682
 30
0.0
 11
286.0
 21
293.82219510669682
 31
0.0
  0
LINE
  5
6191
  8
0
 10
288.0
 20
298.82219510669682
 30
0.0
 11
285.0
 21
298.82219510669682
 31
0.0
  0
LINE
  5
6192
  8
0
 10
288.0
 20
304.82219510669688
 30
0.0
 11
287.0
 21
304.82219510669688
 31
0.0
  0
LINE
  5
6193
  8
0
 10
288.0
 20
305.82219510669682
 30
0.0
 11
287.0
 21
305.82219510669682
 31
0.0
  0
LINE
  5
6194
  8
0
 10
288.0
 20
303.82219510669682
 30
0.0
 11
286.0
 21
303.82219510669682
 31
0.0
  0
LINE
  5
6195
  8
0
 10
288.0
 20
297.82219510669682
 30
0.0
 11
287.0
 21
297.82219510669682
 31
0.0
  0
LINE
  5
6196
  8
0
 10
288.0
 20
302.82219510669688
 30
0.0
 11
287.0
 21
302.82219510669688
 31
0.0
  0
LINE
  5
6197
  8
0
 10
288.0
 20
301.82219510669682
 30
0.0
 11
287.0
 21
301.82219510669682
 31
0.0
  0
LINE
  5
6198
  8
0
 10
288.0
 20
300.82219510669682
 30
0.0
 11
287.0
 21
300.82219510669682
 31
0.0
  0
LINE
  5
6199
  8
0
 10
288.0
 20
299.82219510669682
 30
0.0
 11
287.0
 21
299.82219510669682
 31
0.0
  0
LINE
  5
619A
  8
0
 10
288.0
 20
306.82219510669688
 30
0.0
 11
287.0
 21
306.82219510669688
 31
0.0
  0
LINE
  5
619B
  8
0
 10
288.0
 20
307.82219510669682
 30
0.0
 11
287.0
 21
307.82219510669682
 31
0.0
  0
TEXT
  5
619C
  8
0
 10
195.32666484236159
 20
330.47565532799501
 30
0.0
 40
3.0
  1
地　　下　　水　　文
 72
     1
 11
212.92666484236159
 21
330.07565532799498
 31
0.0
 73
     1
  0
TEXT
  5
619D
  8
0
 10
198.46370386358581
 20
325.35016006408222
 30
0.0
 40
2.0
  1
作業日毎の孔内水位
 72
     1
 11
208.99703719691911
 21
325.08349339741562
 31
0.0
 73
     1
  0
TEXT
  5
619E
  8
0
 10
225.31935636474981
 20
325.16240994725501
 30
0.0
 40
2.5
  1
孔壁保護
 72
     1
 11
230.98602303141641
 21
324.82907661392159
 31
0.0
 73
     1
  0
TEXT
  5
619F
  8
0
 10
232.6666666666666
 20
310.92685195168508
 30
0.0
 40
2.5
  1
理 由
 72
     4
 11
236.0
 21
312.17685195168519
 31
0.0
  0
TEXT
  5
61A0
  8
0
 10
232.58333333333329
 20
320.69836586051002
 30
0.0
 40
2.5
  1
実 施
 72
     4
 11
236.0
 21
321.94836586051002
 31
0.0
  0
TEXT
  5
61A1
  8
0
 10
247.9601105762938
 20
326.57219510669682
 30
0.0
 40
2.5
  1
地下水検層
  7
STANDATDT
 72
     4
 11
247.9601105762938
 21
319.32219510669688
 31
0.0
  0
TEXT
  5
61A2
  8
0
 10
243.79479831475291
 20
315.43741171336291
 30
0.0
 40
2.5
  1
汲
  7
STANDATDT
 72
     4
 11
243.79479831475291
 21
314.18741171336291
 31
0.0
  0
TEXT
  5
61A3
  8
0
 10
243.79479831475291
 20
327.0856687868108
 30
0.0
 40
2.5
  1
方法
  7
STANDATDT
 72
     4
 11
243.79479831475291
 21
324.3356687868108
 31
0.0
  0
TEXT
  5
61A4
  8
0
 10
243.88318706893361
 20
318.00190415027998
 30
0.0
 40
2.5
  1
・
  7
STANDATDT
 72
     4
 11
243.88318706893361
 21
316.58523748361318
 31
0.0
  0
TEXT
  5
61A5
  8
0
 10
243.79479831475291
 20
319.95466236490728
 30
0.0
 40
2.5
  1
自
  7
STANDATDT
 72
     4
 11
243.79479831475291
 21
318.62132903157391
 31
0.0
  0
TEXT
  5
61A6
  8
0
 10
253.53720931285639
 20
332.57219510669682
 30
0.0
 40
2.5
  1
保　　孔　　管
  7
STANDATDT
 72
     4
 11
253.53720931285639
 21
322.32219510669682
 31
0.0
  0
TEXT
  5
61A7
  8
0
 10
258.49999999999989
 20
332.57219510669682
 30
0.0
 40
2.5
  1
計　測　機　器
  7
STANDATDT
 72
     4
 11
258.49999999999989
 21
322.32219510669682
 31
0.0
  0
TEXT
  5
61A8
  8
0
 10
264.22598708334692
 20
320.88516791877748
 30
0.0
 40
2.5
  1
（　　　　　）
 72
     1
 11
274.30932041668029
 21
320.55183458544423
 31
0.0
 73
     1
  0
TEXT
  5
61A9
  8
0
 10
265.70932041668021
 20
327.91273124067362
 30
0.0
 40
3.0
  1
備　　　考
 72
     1
 11
274.30932041668029
 21
327.5127312406737
 31
0.0
 73
     1
  0
TEXT
  5
61AA
  8
0
 10
228.41833910692731
 20
322.78904841769491
 30
0.0
 40
2.5
  1
種　　類
  7
STANDATDT
 72
     4
 11
228.41833910692731
 21
317.03904841769491
 31
0.0
  0
TEXT
  5
61AB
  8
0
 10
223.40645648222841
 20
322.85532168425448
 30
0.0
 40
2.5
  1
孔 径
  7
STANDATDT
 72
     4
 11
223.40645648222841
 21
319.35532168425442
 31
0.0
  0
TEXT
  5
61AC
  8
0
 10
219.02538429870481
 20
323.18212940334962
 30
0.0
 40
2.0
  1
ケ
  7
STANDATDT
 72
     4
 11
219.02538429870481
 21
322.18212940334962
 31
0.0
  0
TEXT
  5
61AD
  8
0
 10
214.9390900392535
 20
323.02531660845801
 30
0.0
 40
2.0
  1
下端深度
  7
STANDATDT
 72
     4
 11
214.9390900392535
 21
318.35864994179133
 31
0.0
  0
TEXT
  5
61AE
  8
0
 10
220.44705575433611
 20
310.62786360731837
 30
0.0
 40
1.5
  1
（mm）
 72
     1
 11
223.14705575433609
 21
312.12786360731849
 31
0.0
 73
     3
  0
TEXT
  5
61AF
  8
0
 10
213.55864189052579
 20
310.77479204414902
 30
0.0
 40
1.5
  1
（ｍ）
 72
     1
 11
216.00864189052581
 21
312.27479204414902
 31
0.0
 73
     3
  0
TEXT
  5
61B0
  8
0
 10
206.55000000000001
 20
310.77479204414902
 30
0.0
 40
1.5
  1
（ｍ）
 72
     1
 11
209.0
 21
312.27479204414902
 31
0.0
 73
     3
  0
TEXT
  5
61B1
  8
0
 10
206.0
 20
315.93721314542199
 30
0.0
 40
1.8
  1
作業後
 72
     1
 11
209.0
 21
317.737213145422
 31
0.0
 73
     3
  0
LINE
  5
61B2
  8
0
 10
205.55327652769159
 20
315.27162911286439
 30
0.0
 11
212.30281296402401
 21
315.27162911286439
 31
0.0
  0
TEXT
  5
61B3
  8
0
 10
206.3544752315378
 20
318.69272062765702
 30
0.0
 40
2.0
  1
水 位
 72
     4
 11
209.0878085648711
 21
319.69272062765702
 31
0.0
  0
TEXT
  5
61B4
  8
0
 10
206.4211418982045
 20
321.13719072455768
 30
0.0
 40
2.0
  1
孔 内
 72
     4
 11
209.0878085648711
 21
322.1371907245578
 31
0.0
  0
TEXT
  5
61B5
  8
0
 10
200.8152283021663
 20
322.61729686458727
 30
0.0
 40
2.5
  1
掘進月日
  7
STANDATDT
 72
     4
 11
200.8152283021663
 21
316.9506301979207
 31
0.0
  0
TEXT
  5
61B6
  8
0
 10
188.45617209643979
 20
310.77505211791242
 30
0.0
 40
1.5
  1
（l/分）
 72
     1
 11
192.0311720964398
 21
312.27505211791242
 31
0.0
 73
     3
  0
TEXT
  5
61B7
  8
0
 10
192.2475316032295
 20
327.09706849132368
 30
0.0
 40
3.0
  1
排 水 量
  7
STANDATDT
 72
     4
 11
192.2475316032295
 21
320.19706849132382
 31
0.0
  0
TEXT
  5
61B8
  8
0
 10
182.2475316032295
 20
327.09706849132368
 30
0.0
 40
3.0
  1
送 水 量
  7
STANDATDT
 72
     4
 11
182.2475316032295
 21
320.19706849132382
 31
0.0
  0
TEXT
  5
61B9
  8
0
 10
178.45617209643979
 20
310.77505211791242
 30
0.0
 40
1.5
  1
（l/分）
 72
     1
 11
182.0311720964398
 21
312.27505211791242
 31
0.0
 73
     3
  0
TEXT
  5
61BA
  8
0
 10
206.0
 20
312.92942044619639
 30
0.0
 40
1.8
  1
作業前
 72
     1
 11
209.0
 21
314.72942044619651
 31
0.0
 73
     3
  0
LINE
  5
61BC
  8
0
 10
10.0
 20
8.8221951066968813
 30
0.0
 11
10.0
 21
308.82219510669688
 31
0.0
  0
LINE
  5
61BD
  8
0
 10
10.0
 20
308.82219510669688
 30
0.0
 11
288.0
 21
308.82219510669688
 31
0.0
  0
LINE
  5
61BE
  8
0
 10
288.0
 20
308.82219510669688
 30
0.0
 11
288.0
 21
8.8221951066968511
 31
0.0
  0
LINE
  5
61BF
  8
0
 10
288.0
 20
8.8221951066968511
 30
0.0
 11
10.0
 21
8.8221951066968813
 31
0.0
  0
LINE
  5
61C0
  8
0
 10
10.0
 20
309.82219510669682
 30
0.0
 11
10.0
 21
334.82219510669682
 31
0.0
  0
LINE
  5
61C1
  8
0
 10
10.0
 20
334.82219510669682
 30
0.0
 11
288.0
 21
334.82219510669682
 31
0.0
  0
LINE
  5
61C2
  8
0
 10
288.0
 20
334.82219510669682
 30
0.0
 11
288.0
 21
309.82219510669682
 31
0.0
  0
LINE
  5
61C3
  8
0
 10
288.0
 20
309.82219510669682
 30
0.0
 11
10.0
 21
309.82219510669682
 31
0.0
  0
TEXT
  5
61C4
  8
0
 10
245.044798314753
 20
320.681040352563
 30
0.0
 40
2.5
  1
（
 50
270.0
  7
STANDATDT
 72
     4
 11
243.79479831475291
 21
320.681040352563
 31
0.0
  0
TEXT
  5
61C5
  8
0
 10
245.044798314753
 20
311.33748665075768
 30
0.0
 40
2.5
  1
）
 50
270.0
  7
STANDATDT
 72
     4
 11
243.79479831475291
 21
311.33748665075768
 31
0.0
  0
TEXT
  5
61C6
  8
0
 10
219.02538429870481
 20
319.53131754439738
 30
0.0
 40
2.0
  1
シング
  7
STANDATDT
 72
     4
 11
219.02538429870481
 21
316.1313175443974
 31
0.0
  0
TEXT
  5
61C7
  8
0
 10
219.02538429870481
 20
320.32494963313559
 30
0.0
 40
2.0
  1
-
 50
90.0
  7
STANDATDT
 72
     4
 11
219.02538429870481
 21
320.32494963313559
 31
0.0
  0
POLYLINE
  5
61C8
  8
0
 66
     1
 10
0.0
 20
0.0
 30
0.0
 70
     1
  0
VERTEX
  5
64C9
  8
0
 10
0.0
 20
420.0
 30
0.0
  0
VERTEX
  5
64CA
  8
0
 10
297.0
 20
420.0
 30
0.0
  0
VERTEX
  5
64CB
  8
0
 10
297.0
 20
0.0
 30
0.0
  0
VERTEX
  5
64CC
  8
0
 10
0.0
 20
0.0
 30
0.0
  0
SEQEND
  5
64CD
  8
0
  0
TEXT
  5
621B
  8
0
 10
227.35040231287661
 20
4.3471468776294238
 30
0.0
 40
3.0
  1
地すべり調査用ボーリング柱状図様式
 11
227.35040231287661
 21
5.8471468776294238
 31
0.0
 73
     2
  0
VIEWPORT
  5
61D0
 67
     1
  8
0
 10
63.379714567022802
 20
183.74492899459989
 30
0.0
 40
312.00160463385379
 41
240.8901277942291
 68
     1
 69
     1
1001
ACAD
1000
MVIEW
1002
{
1070
    16
1010
0.0
1020
0.0
1030
0.0
1010
0.0
1020
0.0
1030
1.0
1040
0.0
1040
240.8901277942291
1040
63.379714567022802
1040
183.74492899459989
1040
50.0
1040
0.0
1040
0.0
1070
     0
1070
   100
1070
     1
1070
     1
1070
     0
1070
     0
1070
     0
1070
     0
1040
0.0
1040
0.0
1040
0.0
1040
10.0
1040
10.0
1040
10.0
1040
10.0
1070
     0
1002
{
1002
}
1002
}
  0
ENDSEC
  0
EOF
