  0
SECTION
  2
HEADER
  9
$ACADVER
  1
AC1009
  9
$INSBASE
 10
0.0
 20
0.0
 30
0.0
  9
$EXTMIN
 10
-0.0045241841507959
 20
-0.0019827309768061
 30
-0.0000000000000053
  9
$EXTMAX
 10
297.00453490325879
 20
620.02280166514095
 30
0.0000000000000099
  9
$LIMMIN
 10
0.0
 20
0.0
  9
$LIMMAX
 10
297.0
 20
420.0
  9
$ORTHOMODE
 70
     0
  9
$REGENMODE
 70
     1
  9
$FILLMODE
 70
     1
  9
$QTEXTMODE
 70
     0
  9
$MIRRTEXT
 70
     1
  9
$DRAGMODE
 70
     2
  9
$LTSCALE
 40
1.0
  9
$OSMODE
 70
     1
  9
$ATTMODE
 70
     1
  9
$TEXTSIZE
 40
4.0
  9
$TRACEWID
 40
1.0
  9
$TEXTSTYLE
  7
STANDARD
  9
$CLAYER
  8
0
  9
$CELTYPE
  6
BYLAYER
  9
$CECOLOR
 62
   256
  9
$DIMSCALE
 40
1.0
  9
$DIMASZ
 40
2.5
  9
$DIMEXO
 40
0.625
  9
$DIMDLI
 40
3.75
  9
$DIMRND
 40
0.0
  9
$DIMDLE
 40
0.0
  9
$DIMEXE
 40
1.25
  9
$DIMTP
 40
0.0
  9
$DIMTM
 40
0.0
  9
$DIMTXT
 40
2.5
  9
$DIMCEN
 40
2.5
  9
$DIMTSZ
 40
0.0
  9
$DIMTOL
 70
     0
  9
$DIMLIM
 70
     0
  9
$DIMTIH
 70
     0
  9
$DIMTOH
 70
     0
  9
$DIMSE1
 70
     0
  9
$DIMSE2
 70
     0
  9
$DIMTAD
 70
     1
  9
$DIMZIN
 70
     0
  9
$DIMBLK
  1

  9
$DIMASO
 70
     1
  9
$DIMSHO
 70
     1
  9
$DIMPOST
  1

  9
$DIMAPOST
  1

  9
$DIMALT
 70
     0
  9
$DIMALTD
 70
     3
  9
$DIMALTF
 40
0.03937007874016
  9
$DIMLFAC
 40
1.0
  9
$DIMTOFL
 70
     1
  9
$DIMTVP
 40
0.0
  9
$DIMTIX
 70
     0
  9
$DIMSOXD
 70
     0
  9
$DIMSAH
 70
     0
  9
$DIMBLK1
  1

  9
$DIMBLK2
  1

  9
$DIMSTYLE
  2
ISO-25
  9
$DIMCLRD
 70
     0
  9
$DIMCLRE
 70
     0
  9
$DIMCLRT
 70
     0
  9
$DIMTFAC
 40
1.0
  9
$DIMGAP
 40
0.625
  9
$LUNITS
 70
     2
  9
$LUPREC
 70
     4
  9
$SKETCHINC
 40
1.0
  9
$FILLETRAD
 40
0.0
  9
$AUNITS
 70
     0
  9
$AUPREC
 70
     0
  9
$MENU
  1
.
  9
$ELEVATION
 40
0.0
  9
$PELEVATION
 40
0.0
  9
$THICKNESS
 40
0.0
  9
$LIMCHECK
 70
     0
  9
$BLIPMODE
 70
     0
  9
$CHAMFERA
 40
0.0
  9
$CHAMFERB
 40
0.0
  9
$SKPOLY
 70
     0
  9
$TDCREATE
 40
2452194.4037277768
  9
$TDUPDATE
 40
2452306.4352793982
  9
$TDINDWG
 40
1.6921439814999999
  9
$TDUSRTIMER
 40
1.6921439814999999
  9
$USRTIMER
 70
     1
  9
$ANGBASE
 50
0.0
  9
$ANGDIR
 70
     0
  9
$PDMODE
 70
     3
  9
$PDSIZE
 40
0.0
  9
$PLINEWID
 40
0.0
  9
$COORDS
 70
     0
  9
$SPLFRAME
 70
     0
  9
$SPLINETYPE
 70
     6
  9
$SPLINESEGS
 70
     8
  9
$ATTDIA
 70
     0
  9
$ATTREQ
 70
     1
  9
$HANDLING
 70
-16383
  9
$HANDSEED
  5
6826
  9
$SURFTAB1
 70
     6
  9
$SURFTAB2
 70
     6
  9
$SURFTYPE
 70
     6
  9
$SURFU
 70
     6
  9
$SURFV
 70
     6
  9
$UCSNAME
  2

  9
$UCSORG
 10
0.0
 20
0.0
 30
0.0
  9
$UCSXDIR
 10
1.0
 20
0.0
 30
0.0
  9
$UCSYDIR
 10
0.0
 20
1.0
 30
0.0
  9
$PUCSNAME
  2

  9
$PUCSORG
 10
0.0
 20
0.0
 30
0.0
  9
$PUCSXDIR
 10
1.0
 20
0.0
 30
0.0
  9
$PUCSYDIR
 10
0.0
 20
1.0
 30
0.0
  9
$USERI1
 70
     1
  9
$USERI2
 70
     0
  9
$USERI3
 70
     0
  9
$USERI4
 70
     0
  9
$USERI5
 70
     0
  9
$USERR1
 40
1.0
  9
$USERR2
 40
1.0
  9
$USERR3
 40
0.0
  9
$USERR4
 40
0.0
  9
$USERR5
 40
0.0
  9
$WORLDVIEW
 70
     1
  9
$SHADEDGE
 70
     3
  9
$SHADEDIF
 70
    70
  9
$TILEMODE
 70
     1
  9
$MAXACTVP
 70
    48
  9
$PLIMCHECK
 70
     0
  9
$PEXTMIN
 10
0.1778145603150278
 20
-0.3103504260435557
 30
0.0
  9
$PEXTMAX
 10
198.1326846757197
 20
283.17468584801992
 30
0.0
  9
$PLIMMIN
 10
-5.8737497329711923
 20
-5.8737478256225568
  9
$PLIMMAX
 10
204.18424892425529
 20
291.05224704742432
  9
$UNITMODE
 70
     0
  9
$VISRETAIN
 70
     1
  9
$PLINEGEN
 70
     0
  9
$PSLTSCALE
 70
     1
  0
ENDSEC
  0
SECTION
  2
TABLES
  0
TABLE
  2
VPORT
 70
     3
  0
VPORT
  2
*ACTIVE
 70
     0
 10
0.0
 20
0.0
 11
1.0
 21
1.0
 12
148.50000535955411
 22
310.01040946708201
 13
0.0
 23
0.0
 14
10.0
 24
10.0
 15
10.0
 25
10.0
 16
0.0
 26
0.0
 36
1.0
 17
0.0
 27
0.0
 37
0.0
 40
626.87588698613013
 41
1.750922509225092
 42
50.0
 43
0.0
 44
0.0
 50
0.0
 51
0.0
 71
     0
 72
   100
 73
     1
 74
     3
 75
     0
 76
     0
 77
     0
 78
     0
  0
ENDTAB
  0
TABLE
  2
LTYPE
 70
     1
  0
LTYPE
  2
CONTINUOUS
 70
     0
  3
Solid line
 72
    65
 73
     0
 40
0.0
  0
ENDTAB
  0
TABLE
  2
LAYER
 70
     1
  0
LAYER
  2
0
 70
     0
 62
     7
  6
CONTINUOUS
  0
ENDTAB
  0
TABLE
  2
STYLE
 70
     2
  0
STYLE
  2
STANDARD
 70
     0
 40
0.0
 41
1.0
 50
0.0
 71
     0
 42
4.0
  3
txt.shx
  4
bigfont.shx
  0
STYLE
  2
STANDATDT
 70
     4
 40
0.0
 41
1.0
 50
0.0
 71
     0
 42
4.0
  3
txt.shx
  4
bigfont.shx
  0
ENDTAB
  0
TABLE
  2
VIEW
 70
     0
  0
ENDTAB
  0
TABLE
  2
UCS
 70
     0
  0
ENDTAB
  0
TABLE
  2
APPID
 70
     1
  0
APPID
  2
ACAD
 70
     0
  0
ENDTAB
  0
TABLE
  2
DIMSTYLE
 70
     2
  0
DIMSTYLE
  2
ISO-25
 70
     0
  3

  4

  5

  6

  7

 40
1.0
 41
2.5
 42
0.625
 43
3.75
 44
1.25
 45
0.0
 46
0.0
 47
0.0
 48
0.0
140
2.5
141
2.5
142
0.0
143
0.03937007874016
144
1.0
145
0.0
146
1.0
147
0.625
 71
     0
 72
     0
 73
     0
 74
     0
 75
     0
 76
     0
 77
     1
 78
     8
170
     0
171
     3
172
     1
173
     0
174
     0
175
     0
176
     0
177
     0
178
     0
  0
DIMSTYLE
  2
STANDARD
 70
     0
  3

  4

  5

  6

  7

 40
1.0
 41
0.18
 42
0.0625
 43
0.38
 44
0.18
 45
0.0
 46
0.0
 47
0.0
 48
0.0
140
0.18
141
0.09
142
0.0
143
25.399999999999999
144
1.0
145
0.0
146
1.0
147
0.09
 71
     0
 72
     0
 73
     1
 74
     1
 75
     0
 76
     0
 77
     0
 78
     0
170
     0
171
     2
172
     0
173
     0
174
     0
175
     0
176
     0
177
     0
178
     0
  0
ENDTAB
  0
ENDSEC
  0
SECTION
  2
BLOCKS
  0
BLOCK
  8
0
  2
$MODEL_SPACE
 70
     0
 10
0.0
 20
0.0
 30
0.0
  3
$MODEL_SPACE
  1

  0
ENDBLK
  5
6114
  8
0
  0
BLOCK
 67
     1
  8
0
  2
$PAPER_SPACE
 70
     0
 10
0.0
 20
0.0
 30
0.0
  3
$PAPER_SPACE
  1

  0
ENDBLK
  5
6110
 67
     1
  8
0
  0
ENDSEC
  0
SECTION
  2
ENTITIES
  0
LINE
  5
6122
  8
0
 10
20.0
 20
528.82219510669688
 30
0.0
 11
177.0
 21
528.82219510669688
 31
0.0
  0
TEXT
  5
6123
  8
0
 10
119.40000082807239
 20
517.32219540703909
 30
0.0
 40
3.0
  1
記　　　事
 72
     4
 11
128.00000082807239
 21
518.82219540703909
 31
0.0
  0
TEXT
  5
6124
  8
0
 10
54.956175280590472
 20
517.82219510669677
 30
0.0
 40
3.0
  1
地質区分
 72
     4
 11
61.756175280590469
 21
519.32219510669665
 31
0.0
  0
TEXT
  5
6125
  8
0
 10
15.0
 20
529.5398942390143
 30
0.0
 40
3.0
  1
標　　尺
  7
STANDATDT
 72
     4
 11
15.0
 21
522.63989423901432
 31
0.0
  0
TEXT
  5
6126
  8
0
 10
25.0
 20
525.9221951066969
 30
0.0
 40
3.0
  1
標　高
  7
STANDATDT
 72
     4
 11
25.0
 21
520.82219510669688
 31
0.0
  0
TEXT
  5
6127
  8
0
 10
45.0
 20
526.22219510669674
 30
0.0
 40
3.0
  1
柱 状 図
  7
STANDATDT
 72
     4
 11
45.0
 21
519.32219510669665
 31
0.0
  0
TEXT
  5
6128
  8
0
 10
35.0
 20
525.9221951066969
 30
0.0
 40
3.0
  1
深　度
  7
STANDATDT
 72
     4
 11
35.0
 21
520.82219510669688
 31
0.0
  0
LINE
  5
6129
  8
0
 10
30.0
 20
509.82219510669671
 30
0.0
 11
30.0
 21
528.82219510669688
 31
0.0
  0
LINE
  5
612A
  8
0
 10
40.0
 20
509.82219510669671
 30
0.0
 11
40.0
 21
528.82219510669688
 31
0.0
  0
LINE
  5
612B
  8
0
 10
20.0
 20
509.82219510669671
 30
0.0
 11
20.0
 21
534.82219510669665
 31
0.0
  0
LINE
  5
612C
  8
0
 10
10.0
 20
408.82219510669688
 30
0.0
 11
13.0
 21
408.82219510669688
 31
0.0
  0
LINE
  5
612D
  8
0
 10
10.0
 20
412.82219510669688
 30
0.0
 11
11.0
 21
412.82219510669688
 31
0.0
  0
LINE
  5
612E
  8
0
 10
10.0
 20
411.82219510669688
 30
0.0
 11
11.0
 21
411.82219510669688
 31
0.0
  0
LINE
  5
612F
  8
0
 10
10.0
 20
410.82219510669671
 30
0.0
 11
11.0
 21
410.82219510669671
 31
0.0
  0
LINE
  5
6130
  8
0
 10
10.0
 20
409.82219510669671
 30
0.0
 11
11.0
 21
409.82219510669671
 31
0.0
  0
LINE
  5
6131
  8
0
 10
10.0
 20
418.82219510669671
 30
0.0
 11
13.0
 21
418.82219510669671
 31
0.0
  0
LINE
  5
6132
  8
0
 10
10.0
 20
413.82219510669671
 30
0.0
 11
12.0
 21
413.82219510669671
 31
0.0
  0
LINE
  5
6133
  8
0
 10
10.0
 20
420.82219510669688
 30
0.0
 11
11.0
 21
420.82219510669688
 31
0.0
  0
LINE
  5
6134
  8
0
 10
10.0
 20
419.82219510669671
 30
0.0
 11
11.0
 21
419.82219510669671
 31
0.0
  0
LINE
  5
6135
  8
0
 10
10.0
 20
414.82219510669671
 30
0.0
 11
11.0
 21
414.82219510669671
 31
0.0
  0
LINE
  5
6136
  8
0
 10
10.0
 20
415.82219510669671
 30
0.0
 11
11.0
 21
415.82219510669671
 31
0.0
  0
LINE
  5
6137
  8
0
 10
10.0
 20
416.82219510669688
 30
0.0
 11
11.0
 21
416.82219510669688
 31
0.0
  0
LINE
  5
6138
  8
0
 10
10.0
 20
417.82219510669682
 30
0.0
 11
11.0
 21
417.82219510669682
 31
0.0
  0
LINE
  5
6139
  8
0
 10
10.0
 20
428.82219510669688
 30
0.0
 11
13.0
 21
428.82219510669688
 31
0.0
  0
LINE
  5
613A
  8
0
 10
10.0
 20
423.82219510669671
 30
0.0
 11
12.0
 21
423.82219510669671
 31
0.0
  0
LINE
  5
613B
  8
0
 10
10.0
 20
429.82219510669688
 30
0.0
 11
11.0
 21
429.82219510669688
 31
0.0
  0
LINE
  5
613C
  8
0
 10
10.0
 20
422.82219510669671
 30
0.0
 11
11.0
 21
422.82219510669671
 31
0.0
  0
LINE
  5
613D
  8
0
 10
10.0
 20
421.82219510669682
 30
0.0
 11
11.0
 21
421.82219510669682
 31
0.0
  0
LINE
  5
613E
  8
0
 10
10.0
 20
424.82219510669688
 30
0.0
 11
11.0
 21
424.82219510669688
 31
0.0
  0
LINE
  5
613F
  8
0
 10
10.0
 20
425.82219510669682
 30
0.0
 11
11.0
 21
425.82219510669682
 31
0.0
  0
LINE
  5
6140
  8
0
 10
10.0
 20
426.82219510669671
 30
0.0
 11
11.0
 21
426.82219510669671
 31
0.0
  0
LINE
  5
6141
  8
0
 10
10.0
 20
427.82219510669671
 30
0.0
 11
11.0
 21
427.82219510669671
 31
0.0
  0
LINE
  5
6142
  8
0
 10
10.0
 20
433.82219510669688
 30
0.0
 11
12.0
 21
433.82219510669688
 31
0.0
  0
LINE
  5
6143
  8
0
 10
10.0
 20
432.82219510669688
 30
0.0
 11
11.0
 21
432.82219510669688
 31
0.0
  0
LINE
  5
6144
  8
0
 10
10.0
 20
434.82219510669671
 30
0.0
 11
11.0
 21
434.82219510669671
 31
0.0
  0
LINE
  5
6145
  8
0
 10
10.0
 20
435.82219510669671
 30
0.0
 11
11.0
 21
435.82219510669671
 31
0.0
  0
LINE
  5
6146
  8
0
 10
10.0
 20
436.82219510669688
 30
0.0
 11
11.0
 21
436.82219510669688
 31
0.0
  0
LINE
  5
6147
  8
0
 10
10.0
 20
437.82219510669688
 30
0.0
 11
11.0
 21
437.82219510669688
 31
0.0
  0
LINE
  5
6148
  8
0
 10
10.0
 20
431.82219510669671
 30
0.0
 11
11.0
 21
431.82219510669671
 31
0.0
  0
LINE
  5
6149
  8
0
 10
10.0
 20
430.82219510669671
 30
0.0
 11
11.0
 21
430.82219510669671
 31
0.0
  0
LINE
  5
614A
  8
0
 10
10.0
 20
438.82219510669671
 30
0.0
 11
13.0
 21
438.82219510669671
 31
0.0
  0
LINE
  5
614B
  8
0
 10
10.0
 20
443.82219510669671
 30
0.0
 11
12.0
 21
443.82219510669671
 31
0.0
  0
LINE
  5
614C
  8
0
 10
10.0
 20
444.82219510669671
 30
0.0
 11
11.0
 21
444.82219510669671
 31
0.0
  0
LINE
  5
614D
  8
0
 10
10.0
 20
445.82219510669688
 30
0.0
 11
11.0
 21
445.82219510669688
 31
0.0
  0
LINE
  5
614E
  8
0
 10
10.0
 20
442.82219510669682
 30
0.0
 11
11.0
 21
442.82219510669682
 31
0.0
  0
LINE
  5
614F
  8
0
 10
10.0
 20
441.82219510669688
 30
0.0
 11
11.0
 21
441.82219510669688
 31
0.0
  0
LINE
  5
6150
  8
0
 10
10.0
 20
440.82219510669688
 30
0.0
 11
11.0
 21
440.82219510669688
 31
0.0
  0
LINE
  5
6151
  8
0
 10
10.0
 20
439.82219510669671
 30
0.0
 11
11.0
 21
439.82219510669671
 31
0.0
  0
LINE
  5
6152
  8
0
 10
10.0
 20
448.82219510669671
 30
0.0
 11
13.0
 21
448.82219510669671
 31
0.0
  0
LINE
  5
6153
  8
0
 10
10.0
 20
453.82219510669688
 30
0.0
 11
12.0
 21
453.82219510669688
 31
0.0
  0
LINE
  5
6154
  8
0
 10
10.0
 20
452.82219510669671
 30
0.0
 11
11.0
 21
452.82219510669671
 31
0.0
  0
LINE
  5
6155
  8
0
 10
10.0
 20
451.82219510669671
 30
0.0
 11
11.0
 21
451.82219510669671
 31
0.0
  0
LINE
  5
6156
  8
0
 10
10.0
 20
450.82219510669682
 30
0.0
 11
11.0
 21
450.82219510669682
 31
0.0
  0
LINE
  5
6157
  8
0
 10
10.0
 20
449.82219510669688
 30
0.0
 11
11.0
 21
449.82219510669688
 31
0.0
  0
LINE
  5
6158
  8
0
 10
10.0
 20
446.82219510669682
 30
0.0
 11
11.0
 21
446.82219510669682
 31
0.0
  0
LINE
  5
6159
  8
0
 10
10.0
 20
447.82219510669671
 30
0.0
 11
11.0
 21
447.82219510669671
 31
0.0
  0
TEXT
  5
615A
  8
0
 10
32.25
 20
511.65552844003003
 30
0.0
 40
2.5
  1
(ｍ)
 72
     1
 11
35.0
 21
511.32219510669671
 31
0.0
 73
     1
  0
LINE
  5
615B
  8
0
 10
10.0
 20
458.82219510669688
 30
0.0
 11
13.0
 21
458.82219510669688
 31
0.0
  0
LINE
  5
615C
  8
0
 10
10.0
 20
461.82219510669688
 30
0.0
 11
11.0
 21
461.82219510669688
 31
0.0
  0
LINE
  5
615D
  8
0
 10
10.0
 20
460.82219510669671
 30
0.0
 11
11.0
 21
460.82219510669671
 31
0.0
  0
LINE
  5
615E
  8
0
 10
10.0
 20
459.82219510669671
 30
0.0
 11
11.0
 21
459.82219510669671
 31
0.0
  0
LINE
  5
615F
  8
0
 10
10.0
 20
454.82219510669688
 30
0.0
 11
11.0
 21
454.82219510669688
 31
0.0
  0
LINE
  5
6160
  8
0
 10
10.0
 20
455.82219510669671
 30
0.0
 11
11.0
 21
455.82219510669671
 31
0.0
  0
LINE
  5
6161
  8
0
 10
10.0
 20
456.82219510669671
 30
0.0
 11
11.0
 21
456.82219510669671
 31
0.0
  0
LINE
  5
6162
  8
0
 10
10.0
 20
457.82219510669688
 30
0.0
 11
11.0
 21
457.82219510669688
 31
0.0
  0
LINE
  5
6163
  8
0
 10
10.0
 20
468.82219510669671
 30
0.0
 11
13.0
 21
468.82219510669671
 31
0.0
  0
LINE
  5
6164
  8
0
 10
10.0
 20
463.82219510669671
 30
0.0
 11
12.0
 21
463.82219510669671
 31
0.0
  0
LINE
  5
6165
  8
0
 10
10.0
 20
470.82219510669688
 30
0.0
 11
11.0
 21
470.82219510669688
 31
0.0
  0
LINE
  5
6166
  8
0
 10
10.0
 20
469.82219510669671
 30
0.0
 11
11.0
 21
469.82219510669671
 31
0.0
  0
LINE
  5
6167
  8
0
 10
10.0
 20
464.82219510669671
 30
0.0
 11
11.0
 21
464.82219510669671
 31
0.0
  0
LINE
  5
6168
  8
0
 10
10.0
 20
465.82219510669688
 30
0.0
 11
11.0
 21
465.82219510669688
 31
0.0
  0
LINE
  5
6169
  8
0
 10
10.0
 20
466.82219510669688
 30
0.0
 11
11.0
 21
466.82219510669688
 31
0.0
  0
LINE
  5
616A
  8
0
 10
10.0
 20
467.82219510669682
 30
0.0
 11
11.0
 21
467.82219510669682
 31
0.0
  0
LINE
  5
616B
  8
0
 10
10.0
 20
462.82219510669688
 30
0.0
 11
11.0
 21
462.82219510669688
 31
0.0
  0
LINE
  5
616C
  8
0
 10
10.0
 20
478.82219510669688
 30
0.0
 11
13.0
 21
478.82219510669688
 31
0.0
  0
LINE
  5
616D
  8
0
 10
10.0
 20
473.82219510669671
 30
0.0
 11
12.0
 21
473.82219510669671
 31
0.0
  0
LINE
  5
616E
  8
0
 10
10.0
 20
475.82219510669682
 30
0.0
 11
11.0
 21
475.82219510669682
 31
0.0
  0
LINE
  5
616F
  8
0
 10
10.0
 20
476.82219510669671
 30
0.0
 11
11.0
 21
476.82219510669671
 31
0.0
  0
LINE
  5
6170
  8
0
 10
10.0
 20
477.82219510669671
 30
0.0
 11
11.0
 21
477.82219510669671
 31
0.0
  0
LINE
  5
6171
  8
0
 10
10.0
 20
472.82219510669671
 30
0.0
 11
11.0
 21
472.82219510669671
 31
0.0
  0
LINE
  5
6172
  8
0
 10
10.0
 20
471.82219510669682
 30
0.0
 11
11.0
 21
471.82219510669682
 31
0.0
  0
LINE
  5
6173
  8
0
 10
10.0
 20
474.82219510669688
 30
0.0
 11
11.0
 21
474.82219510669688
 31
0.0
  0
LINE
  5
6174
  8
0
 10
10.0
 20
483.82219510669688
 30
0.0
 11
12.0
 21
483.82219510669688
 31
0.0
  0
LINE
  5
6175
  8
0
 10
10.0
 20
486.82219510669688
 30
0.0
 11
11.0
 21
486.82219510669688
 31
0.0
  0
LINE
  5
6176
  8
0
 10
10.0
 20
482.82219510669688
 30
0.0
 11
11.0
 21
482.82219510669688
 31
0.0
  0
LINE
  5
6177
  8
0
 10
10.0
 20
481.82219510669671
 30
0.0
 11
11.0
 21
481.82219510669671
 31
0.0
  0
LINE
  5
6178
  8
0
 10
10.0
 20
480.82219510669671
 30
0.0
 11
11.0
 21
480.82219510669671
 31
0.0
  0
LINE
  5
6179
  8
0
 10
10.0
 20
479.82219510669688
 30
0.0
 11
11.0
 21
479.82219510669688
 31
0.0
  0
LINE
  5
617A
  8
0
 10
10.0
 20
484.82219510669671
 30
0.0
 11
11.0
 21
484.82219510669671
 31
0.0
  0
LINE
  5
617B
  8
0
 10
10.0
 20
485.82219510669671
 30
0.0
 11
11.0
 21
485.82219510669671
 31
0.0
  0
LINE
  5
617C
  8
0
 10
10.0
 20
488.82219510669671
 30
0.0
 11
13.0
 21
488.82219510669671
 31
0.0
  0
LINE
  5
617D
  8
0
 10
10.0
 20
493.82219510669671
 30
0.0
 11
12.0
 21
493.82219510669671
 31
0.0
  0
LINE
  5
617E
  8
0
 10
10.0
 20
492.82219510669682
 30
0.0
 11
11.0
 21
492.82219510669682
 31
0.0
  0
LINE
  5
617F
  8
0
 10
10.0
 20
491.82219510669688
 30
0.0
 11
11.0
 21
491.82219510669688
 31
0.0
  0
LINE
  5
6180
  8
0
 10
10.0
 20
490.82219510669688
 30
0.0
 11
11.0
 21
490.82219510669688
 31
0.0
  0
LINE
  5
6181
  8
0
 10
10.0
 20
489.82219510669671
 30
0.0
 11
11.0
 21
489.82219510669671
 31
0.0
  0
LINE
  5
6182
  8
0
 10
10.0
 20
494.82219510669671
 30
0.0
 11
11.0
 21
494.82219510669671
 31
0.0
  0
LINE
  5
6183
  8
0
 10
10.0
 20
487.82219510669688
 30
0.0
 11
11.0
 21
487.82219510669688
 31
0.0
  0
LINE
  5
6184
  8
0
 10
10.0
 20
498.82219510669671
 30
0.0
 11
13.0
 21
498.82219510669671
 31
0.0
  0
LINE
  5
6185
  8
0
 10
10.0
 20
499.82219510669688
 30
0.0
 11
11.0
 21
499.82219510669688
 31
0.0
  0
LINE
  5
6186
  8
0
 10
10.0
 20
500.82219510669682
 30
0.0
 11
11.0
 21
500.82219510669682
 31
0.0
  0
LINE
  5
6187
  8
0
 10
10.0
 20
501.82219510669671
 30
0.0
 11
11.0
 21
501.82219510669671
 31
0.0
  0
LINE
  5
6188
  8
0
 10
10.0
 20
502.82219510669671
 30
0.0
 11
11.0
 21
502.82219510669671
 31
0.0
  0
LINE
  5
6189
  8
0
 10
10.0
 20
496.82219510669682
 30
0.0
 11
11.0
 21
496.82219510669682
 31
0.0
  0
LINE
  5
618A
  8
0
 10
10.0
 20
497.82219510669671
 30
0.0
 11
11.0
 21
497.82219510669671
 31
0.0
  0
LINE
  5
618B
  8
0
 10
10.0
 20
495.82219510669688
 30
0.0
 11
11.0
 21
495.82219510669688
 31
0.0
  0
TEXT
  5
618C
  8
0
 10
12.25
 20
511.65552844003003
 30
0.0
 40
2.5
  1
(ｍ)
 72
     1
 11
15.0
 21
511.32219510669671
 31
0.0
 73
     1
  0
LINE
  5
618D
  8
0
 10
10.0
 20
503.82219510669688
 30
0.0
 11
12.0
 21
503.82219510669688
 31
0.0
  0
LINE
  5
618E
  8
0
 10
10.0
 20
507.82219510669688
 30
0.0
 11
11.0
 21
507.82219510669688
 31
0.0
  0
LINE
  5
618F
  8
0
 10
10.0
 20
506.82219510669671
 30
0.0
 11
11.0
 21
506.82219510669671
 31
0.0
  0
LINE
  5
6190
  8
0
 10
10.0
 20
505.82219510669671
 30
0.0
 11
11.0
 21
505.82219510669671
 31
0.0
  0
LINE
  5
6191
  8
0
 10
10.0
 20
504.82219510669688
 30
0.0
 11
11.0
 21
504.82219510669688
 31
0.0
  0
TEXT
  5
6192
  8
0
 10
22.25
 20
511.65552844003003
 30
0.0
 40
2.5
  1
(ｍ)
 72
     1
 11
25.0
 21
511.32219510669671
 31
0.0
 73
     1
  0
TEXT
  5
6193
  8
0
 10
78.0
 20
526.22219510669674
 30
0.0
 40
3.0
  1
色　　調
  7
STANDATDT
 72
     4
 11
78.0
 21
519.32219510669665
 31
0.0
  0
TEXT
  5
6194
  8
0
 10
87.0
 20
526.32219510669665
 30
0.0
 40
3.0
  1
硬　　軟
  7
STANDATDT
 72
     4
 11
87.0
 21
519.32219510669665
 31
0.0
  0
LINE
  5
6195
  8
0
 10
106.0000008280724
 20
509.8221954070392
 30
0.0
 11
106.0000008280724
 21
528.8221954070392
 31
0.0
  0
LINE
  5
6196
  8
0
 10
83.0
 20
509.82219510669671
 30
0.0
 11
83.0
 21
528.82219510669688
 31
0.0
  0
LINE
  5
6197
  8
0
 10
73.0
 20
509.82219510669671
 30
0.0
 11
73.0
 21
528.82219510669688
 31
0.0
  0
TEXT
  5
6198
  8
0
 10
65.699999999999989
 20
530.22219510669674
 30
0.0
 40
3.0
  1
地　　　　　　　　　　　　　　　　　質
 72
     1
 11
99.500000000000014
 21
529.82219510669688
 31
0.0
 73
     1
  0
LINE
  5
6199
  8
0
 10
177.0
 20
528.82219510669688
 30
0.0
 11
251.0
 21
528.82219510669688
 31
0.0
  0
LINE
  5
619A
  8
0
 10
176.0
 20
509.82219510669671
 30
0.0
 11
176.0
 21
534.82219510669665
 31
0.0
  0
LINE
  5
619B
  8
0
 10
177.0
 20
509.82219510669671
 30
0.0
 11
177.0
 21
534.82219510669665
 31
0.0
  0
LINE
  5
619C
  8
0
 10
226.0
 20
509.82219510669671
 30
0.0
 11
225.9999999999998
 21
523.82219510669665
 31
0.0
  0
LINE
  5
619D
  8
0
 10
176.0
 20
509.82219510669671
 30
0.0
 11
176.0
 21
528.82219510669688
 31
0.0
  0
LINE
  5
619E
  8
0
 10
213.0
 20
523.82193503293365
 30
0.0
 11
213.0
 21
509.82193503293342
 31
0.0
  0
LINE
  5
619F
  8
0
 10
251.0
 20
509.82219510669671
 30
0.0
 11
251.0
 21
534.82219510669665
 31
0.0
  0
LINE
  5
61A0
  8
0
 10
261.0
 20
509.82219510669671
 30
0.0
 11
261.0
 21
534.82219510669665
 31
0.0
  0
TEXT
  5
61A1
  8
0
 10
16.997089773706328
 20
457.82219510669688
 30
0.0
 40
2.0
  1
5
 72
     2
 11
18.330423107039671
 21
458.82219510669688
 31
0.0
 73
     2
  0
TEXT
  5
61A2
  8
0
 10
16.997089773706328
 20
467.82219510669682
 30
0.0
 40
2.0
  1
4
 72
     2
 11
18.330423107039671
 21
468.82219510669671
 31
0.0
 73
     2
  0
TEXT
  5
61A3
  8
0
 10
16.997089773706328
 20
477.82219510669682
 30
0.0
 40
2.0
  1
3
 72
     2
 11
18.330423107039671
 21
478.82219510669688
 31
0.0
 73
     2
  0
TEXT
  5
61A4
  8
0
 10
16.997089773706328
 20
487.82219510669682
 30
0.0
 40
2.0
  1
2
 72
     2
 11
18.330423107039671
 21
488.82219510669671
 31
0.0
 73
     2
  0
TEXT
  5
61A5
  8
0
 10
17.663756440373
 20
497.82219510669671
 30
0.0
 40
2.0
  1
1
 72
     2
 11
18.330423107039671
 21
498.82219510669671
 31
0.0
 73
     2
  0
TEXT
  5
61A6
  8
0
 10
16.997089773706328
 20
447.82219510669671
 30
0.0
 40
2.0
  1
6
 72
     2
 11
18.330423107039671
 21
448.82219510669671
 31
0.0
 73
     2
  0
TEXT
  5
61A7
  8
0
 10
16.997089773706328
 20
437.82219510669682
 30
0.0
 40
2.0
  1
7
 72
     2
 11
18.330423107039671
 21
438.82219510669671
 31
0.0
 73
     2
  0
TEXT
  5
61A8
  8
0
 10
16.997089773706328
 20
427.82219510669682
 30
0.0
 40
2.0
  1
8
 72
     2
 11
18.330423107039671
 21
428.82219510669688
 31
0.0
 73
     2
  0
TEXT
  5
61A9
  8
0
 10
16.997089773706328
 20
417.82219510669682
 30
0.0
 40
2.0
  1
9
 72
     2
 11
18.330423107039671
 21
418.82219510669671
 31
0.0
 73
     2
  0
TEXT
  5
61AA
  8
0
 10
15.99708977370633
 20
407.82219510669688
 30
0.0
 40
2.0
  1
10
 72
     2
 11
18.330423107039671
 21
408.82219510669688
 31
0.0
 73
     2
  0
TEXT
  5
61AB
  8
0
 10
198.4568925256375
 20
562.07219486235704
 30
0.0
 40
3.5
  1
～
 11
198.4568925256375
 21
563.82219486235704
 31
0.0
 73
     2
  0
LINE
  5
61AC
  8
0
 10
231.0
 20
509.82219510669671
 30
0.0
 11
231.0
 21
523.82219510669665
 31
0.0
  0
LINE
  5
61AD
  8
0
 10
256.0
 20
509.82219510669671
 30
0.0
 11
256.0
 21
534.82219510669665
 31
0.0
  0
LINE
  5
61AE
  8
0
 10
50.0
 20
509.82219510669671
 30
0.0
 11
50.0
 21
528.82219510669688
 31
0.0
  0
LINE
  5
61AF
  8
0
 10
205.0
 20
523.82193503293365
 30
0.0
 11
205.0
 21
509.82193503293342
 31
0.0
  0
LINE
  5
61B0
  8
0
 10
197.0
 20
523.82219510669665
 30
0.0
 11
241.0
 21
523.82219510669665
 31
0.0
  0
TEXT
  5
61B1
  8
0
 10
98.540399734216635
 20
526.32219540703909
 30
0.0
 40
3.0
  1
風　　化
  7
STANDATDT
 72
     4
 11
98.540399734216635
 21
519.32219540703898
 31
0.0
  0
TEXT
  5
61B2
  8
0
 10
93.540399734216635
 20
526.52219540703913
 30
0.0
 40
3.0
  1
コア形状
  7
STANDATDT
 72
     4
 11
93.540399734216635
 21
519.32219540703898
 31
0.0
  0
LINE
  5
61B3
  8
0
 10
96.000000828072416
 20
509.8221954070392
 30
0.0
 11
96.000000828072416
 21
528.8221954070392
 31
0.0
  0
LINE
  5
61B4
  8
0
 10
91.000000828072416
 20
509.8221954070392
 30
0.0
 11
91.000000828072416
 21
528.8221954070392
 31
0.0
  0
TEXT
  5
61B5
  8
0
 10
103.54039973421661
 20
526.22219540703895
 30
0.0
 40
3.0
  1
変　　質
  7
STANDATDT
 72
     4
 11
103.54039973421661
 21
519.32219540703898
 31
0.0
  0
LINE
  5
61B6
  8
0
 10
101.0000008280724
 20
509.8221954070392
 30
0.0
 11
101.0000008280724
 21
528.8221954070392
 31
0.0
  0
LINE
  5
61B7
  8
0
 10
187.0
 20
509.82219510669671
 30
0.0
 11
187.0
 21
528.82219510669688
 31
0.0
  0
LINE
  5
61B8
  8
0
 10
197.0
 20
509.82219510669671
 30
0.0
 11
197.0
 21
528.82219510669688
 31
0.0
  0
LINE
  5
61B9
  8
0
 10
221.0
 20
509.82219510669671
 30
0.0
 11
220.99999999999989
 21
528.82219510669688
 31
0.0
  0
TEXT
  5
61BA
  8
0
 10
161.33333333333329
 20
520.79695046285622
 30
0.0
 40
2.5
  1
貫入試験
 72
     1
 11
167.0
 21
520.46361712952285
 31
0.0
 73
     1
  0
TEXT
  5
61BB
  8
0
 10
161.33333333333329
 20
524.38087366588968
 30
0.0
 40
2.5
  1
標　　準
 72
     1
 11
167.0
 21
524.04754033255631
 31
0.0
 73
     1
  0
LINE
  5
61BC
  8
0
 10
158.0
 20
518.82219540703909
 30
0.0
 11
176.0
 21
518.82219540703909
 31
0.0
  0
TEXT
  5
61BD
  8
0
 10
156.10491679478719
 20
526.62088380885928
 30
0.0
 40
3.0
  1
コ　ア
  7
STANDATDT
 72
     4
 11
156.10491679478719
 21
521.32088380885943
 31
0.0
  0
TEXT
  5
61BE
  8
0
 10
151.96766895965641
 20
526.42088380885934
 30
0.0
 40
3.0
  1
採取率
  7
STANDATDT
 72
     4
 11
151.96766895965641
 21
521.32088380885943
 31
0.0
  0
LINE
  5
61BF
  8
0
 10
150.00000082807239
 20
509.8221954070392
 30
0.0
 11
150.00000082807239
 21
528.8221954070392
 31
0.0
  0
TEXT
  5
61C0
  8
0
 10
151.25000082807239
 20
510.78291765949177
 30
0.0
 40
2.5
  1
(％)
 72
     1
 11
154.00000082807239
 21
510.44958432615852
 31
0.0
 73
     1
  0
LINE
  5
61C1
  8
0
 10
158.00000082807239
 20
509.8221954070392
 30
0.0
 11
158.00000082807239
 21
528.8221954070392
 31
0.0
  0
LINE
  5
61C2
  8
0
 10
158.00000082807239
 20
509.8221954070392
 30
0.0
 11
158.00000082807239
 21
528.8221954070392
 31
0.0
  0
TEXT
  5
61C3
  8
0
 10
164.5
 20
517.72219540703907
 30
0.0
 40
3.0
  1
区間
  7
STANDATDT
 72
     4
 11
164.5
 21
514.3221954070392
 31
0.0
  0
TEXT
  5
61C4
  8
0
 10
173.5
 20
517.72219540703907
 30
0.0
 40
3.0
  1
Ｎ値
  7
STANDATDT
 72
     4
 11
173.5
 21
514.3221954070392
 31
0.0
  0
LINE
  5
61C5
  8
0
 10
171.0
 20
509.8221954070392
 30
0.0
 11
171.0
 21
518.82219540703909
 31
0.0
  0
TEXT
  5
61C6
  8
0
 10
109.6605321241933
 20
544.24619511060484
 30
0.0
 40
1.8
  1
90゜
 72
     1
 11
111.5505321241933
 21
545.14619511060494
 31
0.0
 73
     2
  0
TEXT
  5
61C7
  8
0
 10
101.5833333333333
 20
570.57219510669665
 30
0.0
 40
2.5
  1
調査位置
 72
     1
 11
107.25
 21
571.82219510669677
 31
0.0
 73
     2
  0
TEXT
  5
61C8
  8
0
 10
101.5833333333333
 20
554.57219510669665
 30
0.0
 40
2.5
  1
主任技師
 72
     1
 11
107.25
 21
555.82219510669665
 31
0.0
 73
     2
  0
POLYLINE
  5
61C9
  8
0
 66
     1
 10
0.0
 20
0.0
 30
0.0
 70
     1
  0
VERTEX
  5
6817
  8
0
 10
288.0
 20
535.82219510669665
 30
0.0
  0
VERTEX
  5
6818
  8
0
 10
10.0
 20
535.82219510669665
 30
0.0
  0
VERTEX
  5
6819
  8
0
 10
10.0
 20
575.82219510669677
 30
0.0
  0
VERTEX
  5
681A
  8
0
 10
288.0
 20
575.82219510669677
 30
0.0
  0
SEQEND
  5
681B
  8
0
  0
LINE
  5
61CF
  8
0
 10
52.0
 20
588.32219510669677
 30
0.0
 11
207.0
 21
588.32219510669677
 31
0.0
  0
LINE
  5
61D0
  8
0
 10
52.0
 20
577.82219510669665
 30
0.0
 11
207.0
 21
577.82219510669665
 31
0.0
  0
LINE
  5
61D1
  8
0
 10
10.0
 20
551.82219510669665
 30
0.0
 11
288.0
 21
551.82219510669665
 31
0.0
  0
LINE
  5
61D2
  8
0
 10
10.0
 20
559.82219510669665
 30
0.0
 11
288.0
 21
559.82219510669665
 31
0.0
  0
LINE
  5
61D3
  8
0
 10
10.0
 20
567.82219510669677
 30
0.0
 11
288.0
 21
567.82219510669677
 31
0.0
  0
LINE
  5
61D4
  8
0
 10
103.2499999999999
 20
543.82219510669665
 30
0.0
 11
103.2499999999999
 21
538.11757770119675
 31
0.0
  0
TEXT
  5
61D5
  8
0
 10
104.5291707453859
 20
537.06676263274301
 30
0.0
 40
1.8
  1
南
 72
     1
 11
105.3691707453859
 21
537.9667626327431
 31
0.0
 73
     2
  0
TEXT
  5
61D6
  8
0
 10
98.683980293036015
 20
537.06676263274301
 30
0.0
 40
1.8
  1
180゜
 72
     1
 11
101.173980293036
 21
537.9667626327431
 31
0.0
 73
     2
  0
LINE
  5
61D7
  8
0
 10
93.0
 20
535.82219510669665
 30
0.0
 11
93.0
 21
551.82219510669665
 31
0.0
  0
LINE
  5
61D8
  8
0
 10
85.0
 20
535.82219510669665
 30
0.0
 11
85.0
 21
551.82219510669665
 31
0.0
  0
TEXT
  5
61D9
  8
0
 10
89.0
 20
549.57219510669665
 30
0.0
 40
2.5
  1
方　　向
  7
STANDATDT
 72
     1
 11
89.0
 21
543.82219510669665
 31
0.0
 73
     2
  0
TEXT
  5
61DA
  8
0
 10
74.455926910257062
 20
536.60932264406222
 30
0.0
 40
1.8
  1
0゜
 72
     1
 11
75.445926910257043
 21
537.50932264406219
 31
0.0
 73
     2
  0
LINE
  5
61DB
  8
0
 10
75.500000223754114
 20
543.82219510669665
 30
0.0
 11
75.500000223754114
 21
538.11757770119675
 31
0.0
  0
LINE
  5
61DC
  8
0
 10
69.0
 20
535.82219510669665
 30
0.0
 11
69.0
 21
551.82219510669665
 31
0.0
  0
TEXT
  5
61DD
  8
0
 10
64.5
 20
549.57219510669665
 30
0.0
 40
2.5
  1
角　　度
  7
STANDATDT
 72
     1
 11
64.5
 21
543.82219510669665
 31
0.0
 73
     2
  0
TEXT
  5
61DE
  8
0
 10
55.54753692108374
 20
538.44323183856704
 30
0.0
 40
3.0
  1
m
 72
     1
 11
56.547536921083747
 21
539.94323183856704
 31
0.0
 73
     2
  0
LINE
  5
61DF
  8
0
 10
60.0
 20
535.82219510669665
 30
0.0
 11
60.0
 21
551.82219510669665
 31
0.0
  0
LINE
  5
61E0
  8
0
 10
36.0
 20
535.82219510669665
 30
0.0
 11
36.0
 21
575.82219510669677
 31
0.0
  0
TEXT
  5
61E1
  8
0
 10
12.83333333333333
 20
538.57219510669665
 30
0.0
 40
2.5
  1
総　掘　進　長
 72
     1
 11
23.0
 21
539.82219510669665
 31
0.0
 73
     2
  0
TEXT
  5
61E2
  8
0
 10
16.4163855562417
 20
570.57219510669665
 30
0.0
 40
2.5
  1
ー
 72
     1
 11
17.583052222908371
 21
571.82219510669677
 31
0.0
 73
     2
  0
TEXT
  5
61E3
  8
0
 10
12.916666666666661
 20
562.57219510669665
 30
0.0
 40
2.5
  1
発  注  機  関
 72
     1
 11
23.0
 21
563.82219510669665
 31
0.0
 73
     2
  0
TEXT
  5
61E4
  8
0
 10
12.83333333333333
 20
546.57219510669665
 30
0.0
 40
2.5
  1
孔  口  標  高
 72
     1
 11
23.0
 21
547.82219510669665
 31
0.0
 73
     2
  0
TEXT
  5
61E5
  8
0
 10
12.916666666666661
 20
554.57219510669665
 30
0.0
 40
2.5
  1
調 査 業 者 名
 72
     1
 11
23.0
 21
555.82219510669665
 31
0.0
 73
     2
  0
LINE
  5
61E6
  8
0
 10
10.0
 20
543.82219510669665
 30
0.0
 11
60.0
 21
543.82219510669665
 31
0.0
  0
TEXT
  5
61E7
  8
0
 10
12.44609981837675
 20
570.57219510669665
 30
0.0
 40
2.5
  1
ボ
 72
     1
 11
13.69609981837675
 21
571.82219510669677
 31
0.0
 73
     2
  0
TEXT
  5
61E8
  8
0
 10
50.39173740336728
 20
552.91550521502938
 30
0.0
 40
2.0
  1
（          　  　　　　　   ）
 72
     1
 11
68.658404070033953
 21
553.91550521502927
 31
0.0
 73
     2
  0
TEXT
  5
61E9
  8
0
 10
55.241122999872083
 20
580.03922573896853
 30
0.0
 40
4.0
  1
事業・工事名
 72
     1
 11
68.97445633320541
 21
582.03922573896853
 31
0.0
 73
     2
  0
TEXT
  5
61EA
  8
0
 10
55.241122999872083
 20
590.53922573896853
 30
0.0
 40
4.0
  1
調   査   名
 72
     1
 11
68.97445633320541
 21
592.53922573896853
 31
0.0
 73
     2
  0
TEXT
  5
61EB
  8
0
 10
27.910576103169898
 20
570.57219510669665
 30
0.0
 40
2.5
  1
グ
 72
     1
 11
29.24390943650323
 21
571.82219510669677
 31
0.0
 73
     2
  0
TEXT
  5
61EC
  8
0
 10
32.047528507701507
 20
570.57219510669665
 30
0.0
 40
2.5
  1
名
 72
     1
 11
33.13086184103485
 21
571.82219510669677
 31
0.0
 73
     2
  0
TEXT
  5
61ED
  8
0
 10
24.1069570319716
 20
570.57219510669665
 30
0.0
 40
2.5
  1
ン
 72
     1
 11
25.3569570319716
 21
571.82219510669677
 31
0.0
 73
     2
  0
TEXT
  5
61EE
  8
0
 10
20.30333796077332
 20
570.57219510669665
 30
0.0
 40
2.5
  1
リ
 72
     1
 11
21.470004627439991
 21
571.82219510669677
 31
0.0
 73
     2
  0
TEXT
  5
61EF
  8
0
 10
43.956225062303801
 20
552.91550521502938
 30
0.0
 40
2.0
  1
電話
 72
     1
 11
46.089558395637141
 21
553.91550521502927
 31
0.0
 73
     2
  0
TEXT
  5
61F0
  8
0
 10
55.54753692108374
 20
546.44323183856704
 30
0.0
 40
3.0
  1
m
 72
     1
 11
56.547536921083747
 21
547.94323183856704
 31
0.0
 73
     2
  0
LINE
  5
61F1
  8
0
 10
99.0
 20
575.82219510669677
 30
0.0
 11
99.0
 21
567.82219510669677
 31
0.0
  0
TEXT
  5
61F2
  8
0
 10
72.311722501059194
 20
549.7696716593972
 30
0.0
 40
1.8
  1
180゜
 72
     1
 11
74.801722501059203
 21
550.6696716593973
 31
0.0
 73
     2
  0
LINE
  5
61F3
  8
0
 10
75.500000223754114
 20
543.82219510669665
 30
0.0
 11
81.204617629254344
 21
543.82219510669665
 31
0.0
  0
ARC
  5
61F4
  8
0
 10
75.500000223754114
 20
543.82219510669665
 30
0.0
 40
4.5
 50
270.0
 51
90.0
  0
LINE
  5
61F5
  8
0
 10
75.500000223754114
 20
543.82219510669665
 30
0.0
 11
75.500000223754114
 21
549.5268125121969
 31
0.0
  0
TEXT
  5
61F6
  8
0
 10
72.777047559151612
 20
545.69492012292653
 30
0.0
 40
1.8
  1
上
 72
     1
 11
73.617047559151615
 21
546.59492012292651
 31
0.0
 73
     2
  0
TEXT
  5
61F7
  8
0
 10
72.777047559151612
 20
541.00161034207053
 30
0.0
 40
1.8
  1
下
 72
     1
 11
73.617047559151615
 21
541.9016103420704
 31
0.0
 73
     2
  0
TEXT
  5
61F8
  8
0
 10
81.287348056396567
 20
544.72463101088545
 30
0.0
 40
1.8
  1
90゜
 72
     1
 11
83.177348056396568
 21
545.62463101088542
 31
0.0
 73
     2
  0
LINE
  5
61F9
  8
0
 10
99.0
 20
559.82219510669665
 30
0.0
 11
99.0
 21
551.82219510669665
 31
0.0
  0
TEXT
  5
61FA
  8
0
 10
100.6249312824494
 20
549.26428276230979
 30
0.0
 40
1.8
  1
北
 72
     1
 11
101.4649312824493
 21
550.16428276230965
 31
0.0
 73
     2
  0
LINE
  5
61FB
  8
0
 10
103.2499999999999
 20
543.82219510669665
 30
0.0
 11
97.545382594499856
 21
543.82219510669665
 31
0.0
  0
CIRCLE
  5
61FC
  8
0
 10
103.2499999999999
 20
543.82219510669665
 30
0.0
 40
4.5
  0
TEXT
  5
61FD
  8
0
 10
95.105309771431308
 20
541.62445029205924
 30
0.0
 40
1.8
  1
西
 72
     1
 11
95.945309771431312
 21
542.52445029205921
 31
0.0
 73
     2
  0
TEXT
  5
61FE
  8
0
 10
94.067334022075286
 20
544.24619511060484
 30
0.0
 40
1.8
  1
270゜
 72
     1
 11
96.857334022075307
 21
545.14619511060494
 31
0.0
 73
     2
  0
LINE
  5
61FF
  8
0
 10
103.2499999999999
 20
543.82219510669665
 30
0.0
 11
103.2499999999999
 21
549.5268125121969
 31
0.0
  0
LINE
  5
6200
  8
0
 10
103.2499999999999
 20
543.82219510669665
 30
0.0
 11
108.9546174055
 21
543.82219510669665
 31
0.0
  0
TEXT
  5
6201
  8
0
 10
109.4269034460918
 20
541.62445029205924
 30
0.0
 40
1.8
  1
東
 72
     1
 11
110.2669034460919
 21
542.52445029205921
 31
0.0
 73
     2
  0
TEXT
  5
6202
  8
0
 10
105.9118367462349
 20
549.18130750876946
 30
0.0
 40
1.8
  1
0゜
 72
     1
 11
106.90183674623491
 21
550.08130750876956
 31
0.0
 73
     2
  0
LINE
  5
6203
  8
0
 10
237.0
 20
551.82219510669665
 30
0.0
 11
237.0
 21
535.82219510669665
 31
0.0
  0
LINE
  5
6204
  8
0
 10
220.0
 20
551.82219510669665
 30
0.0
 11
220.0
 21
535.82219510669665
 31
0.0
  0
TEXT
  5
6205
  8
0
 10
222.75
 20
538.57219510669665
 30
0.0
 40
2.5
  1
ポ ン プ
 72
     1
 11
228.5
 21
539.82219510669665
 31
0.0
 73
     2
  0
LINE
  5
6206
  8
0
 10
162.5
 20
535.82219510669665
 30
0.0
 11
162.5
 21
567.82219510669677
 31
0.0
  0
TEXT
  5
6207
  8
0
 10
141.5
 20
549.57219510669665
 30
0.0
 40
2.5
  1
使用機種
  7
STANDATDT
 72
     1
 11
141.5
 21
543.82219510669665
 31
0.0
 73
     2
  0
LINE
  5
6208
  8
0
 10
145.5
 20
535.82219510669665
 30
0.0
 11
145.5
 21
567.82219510669677
 31
0.0
  0
TEXT
  5
6209
  8
0
 10
148.33333333333329
 20
538.57219510669665
 30
0.0
 40
2.5
  1
エンジン
 72
     1
 11
154.0
 21
539.82219510669665
 31
0.0
 73
     2
  0
LINE
  5
620A
  8
0
 10
137.5
 20
535.82219510669665
 30
0.0
 11
137.5
 21
551.82219510669665
 31
0.0
  0
TEXT
  5
620B
  8
0
 10
126.0157017748582
 20
538.4224130580069
 30
0.0
 40
1.8
  1
90゜
 72
     1
 11
127.9057017748582
 21
539.32241305800676
 31
0.0
 73
     2
  0
LINE
  5
620C
  8
0
 10
121.5
 20
535.82219510669665
 30
0.0
 11
121.5
 21
551.82219510669665
 31
0.0
  0
TEXT
  5
620D
  8
0
 10
117.5
 20
549.57219510669665
 30
0.0
 40
2.5
  1
地盤勾配
  7
STANDATDT
 72
     1
 11
117.5
 21
543.82219510669665
 31
0.0
 73
     2
  0
LINE
  5
620E
  8
0
 10
113.5
 20
535.82219510669665
 30
0.0
 11
113.5
 21
551.82219510669665
 31
0.0
  0
TEXT
  5
620F
  8
0
 10
194.7499999999998
 20
556.07219510669665
 30
0.0
 40
2.5
  1
コ　　ア
 72
     1
 11
200.49999999999989
 21
557.32219510669665
 31
0.0
 73
     2
  0
TEXT
  5
6210
  8
0
 10
194.8333333333332
 20
553.07219510669677
 30
0.0
 40
2.5
  1
鑑 定 者
 72
     1
 11
200.49999999999989
 21
554.32219510669688
 31
0.0
 73
     2
  0
LINE
  5
6211
  8
0
 10
145.5
 20
543.82219510669665
 30
0.0
 11
288.0
 21
543.82219510669665
 31
0.0
  0
TEXT
  5
6212
  8
0
 10
125.1666666666666
 20
602.92888493724035
 30
0.0
 40
5.0
  1
ボーリング柱状図
 72
     1
 11
148.5
 21
605.42888493724035
 31
0.0
 73
     2
  0
TEXT
  5
6213
  8
0
 10
148.33333333333329
 20
546.57219510669665
 30
0.0
 40
2.5
  1
試 錐 機
 72
     1
 11
154.0
 21
547.82219510669665
 31
0.0
 73
     2
  0
TEXT
  5
6214
  8
0
 10
148.33333333333329
 20
553.07219510669677
 30
0.0
 40
2.5
  1
代 理 人
 72
     1
 11
154.0
 21
554.32219510669688
 31
0.0
 73
     2
  0
TEXT
  5
6215
  8
0
 10
148.33333333333329
 20
556.07219510669665
 30
0.0
 40
2.5
  1
現　　場
 72
     1
 11
154.0
 21
557.32219510669665
 31
0.0
 73
     2
  0
TEXT
  5
6216
  8
0
 10
148.4166666666666
 20
562.57219510669665
 30
0.0
 40
2.5
  1
調査期間
 72
     1
 11
154.0
 21
563.82219510669665
 31
0.0
 73
     2
  0
LINE
  5
6217
  8
0
 10
115.5
 20
575.82219510669677
 30
0.0
 11
115.5
 21
567.82219510669677
 31
0.0
  0
TEXT
  5
6218
  8
0
 10
133.8597423266454
 20
545.98857265613219
 30
0.0
 40
1.8
  1
0゜
 72
     1
 11
134.8497423266455
 21
546.88857265613228
 31
0.0
 73
     2
  0
LINE
  5
6219
  8
0
 10
115.5
 20
559.82219510669665
 30
0.0
 11
115.5
 21
551.82219510669665
 31
0.0
  0
TEXT
  5
621A
  8
0
 10
124.53747192386921
 20
546.3253051992491
 30
0.0
 40
1.8
  1
鉛直
  7
STANDATDT
 72
     1
 11
124.53747192386921
 21
544.34530519924908
 31
0.0
 73
     2
  0
TEXT
  5
621B
  8
0
 10
127.9442777811494
 20
547.27177690278177
 30
0.0
 40
1.8
  1
水平
 72
     1
 11
129.86427778114941
 21
548.17177690278174
 31
0.0
 73
     2
  0
ARC
  5
621C
  8
0
 10
126.4999842828087
 20
546.60653872859575
 30
0.0
 40
4.5
 50
270.0
 51
0.0
  0
LINE
  5
621D
  8
0
 10
126.4999842828087
 20
546.60653872859575
 30
0.0
 11
132.20460168830891
 21
546.60653872859575
 31
0.0
  0
LINE
  5
621E
  8
0
 10
126.4999842828087
 20
546.60653872859575
 30
0.0
 11
126.4999842828087
 21
540.90192132309562
 31
0.0
  0
LINE
  5
621F
  8
0
 10
192.5
 20
551.82219510669665
 30
0.0
 11
192.5
 21
559.82219510669665
 31
0.0
  0
TEXT
  5
6220
  8
0
 10
242.33333333333329
 20
556.07219510669665
 30
0.0
 40
2.5
  1
ボーリン
 72
     1
 11
248.0
 21
557.32219510669665
 31
0.0
 73
     2
  0
TEXT
  5
6221
  8
0
 10
242.1666666666666
 20
553.07219510669677
 30
0.0
 40
2.5
  1
グ責任者
 72
     1
 11
248.0
 21
554.32219510669688
 31
0.0
 73
     2
  0
TEXT
  5
6222
  8
0
 10
242.33333333333329
 20
562.57219510669665
 30
0.0
 40
2.5
  1
東　　経
 72
     1
 11
248.0
 21
563.82219510669665
 31
0.0
 73
     2
  0
TEXT
  5
6223
  8
0
 10
242.33333333333329
 20
570.57219510669665
 30
0.0
 40
2.5
  1
北　　緯
 72
     1
 11
248.0
 21
571.82219510669677
 31
0.0
 73
     2
  0
POLYLINE
  5
6224
  8
0
 66
     1
 10
0.0
 20
0.0
 30
0.0
 70
     1
  0
VERTEX
  5
681C
  8
0
 10
288.0
 20
584.82219510669677
 30
0.0
  0
VERTEX
  5
681D
  8
0
 10
224.0
 20
584.82219510669677
 30
0.0
  0
VERTEX
  5
681E
  8
0
 10
224.0
 20
593.32219510669677
 30
0.0
  0
VERTEX
  5
681F
  8
0
 10
288.0
 20
593.32219510669677
 30
0.0
  0
SEQEND
  5
6820
  8
0
  0
LINE
  5
622A
  8
0
 10
239.5
 20
575.82219510669677
 30
0.0
 11
239.5
 21
551.82219510669665
 31
0.0
  0
TEXT
  5
622B
  8
0
 10
222.9166666666666
 20
548.07219510669688
 30
0.0
 40
2.5
  1
ハンマー
 72
     1
 11
228.5
 21
549.32219510669688
 31
0.0
 73
     2
  0
TEXT
  5
622C
  8
0
 10
222.83333333333329
 20
545.07219510669677
 30
0.0
 40
2.5
  1
落下用具
 72
     1
 11
228.5
 21
546.32219510669688
 31
0.0
 73
     2
  0
LINE
  5
622D
  8
0
 10
209.0
 20
551.82219510669665
 30
0.0
 11
209.0
 21
559.82219510669665
 31
0.0
  0
TEXT
  5
622E
  8
0
 10
227.22290107282211
 20
576.85757598760415
 30
0.0
 40
2.0
  1
シートNo.
 72
     1
 11
232.82290107282211
 21
577.85757598760415
 31
0.0
 73
     2
  0
TEXT
  5
622F
  8
0
 10
226.0
 20
588.072195106697
 30
0.0
 40
2.0
  1
ボーリングNo.
 72
     1
 11
234.0
 21
589.072195106697
 31
0.0
 73
     2
  0
LINE
  5
6230
  8
0
 10
252.0
 20
593.32219510669677
 30
0.0
 11
252.0
 21
584.82219510669677
 31
0.0
  0
LINE
  5
6231
  8
0
 10
248.0
 20
593.32219510669677
 30
0.0
 11
248.0
 21
584.82219510669677
 31
0.0
  0
LINE
  5
6232
  8
0
 10
244.0
 20
593.32219510669677
 30
0.0
 11
244.0
 21
584.82219510669677
 31
0.0
  0
LINE
  5
6233
  8
0
 10
256.49999999999989
 20
575.82219510669677
 30
0.0
 11
256.49999999999989
 21
551.82219510669665
 31
0.0
  0
LINE
  5
6234
  8
0
 10
276.0
 20
593.32219510669677
 30
0.0
 11
276.0
 21
584.82219510669677
 31
0.0
  0
LINE
  5
6235
  8
0
 10
272.0
 20
593.32219510669677
 30
0.0
 11
272.0
 21
584.82219510669677
 31
0.0
  0
LINE
  5
6236
  8
0
 10
268.0
 20
593.32219510669677
 30
0.0
 11
268.0
 21
584.82219510669677
 31
0.0
  0
LINE
  5
6237
  8
0
 10
264.0
 20
593.32219510669677
 30
0.0
 11
264.0
 21
584.82219510669677
 31
0.0
  0
LINE
  5
6238
  8
0
 10
260.0
 20
593.32219510669677
 30
0.0
 11
260.0
 21
584.82219510669677
 31
0.0
  0
LINE
  5
6239
  8
0
 10
256.0
 20
593.32219510669677
 30
0.0
 11
256.0
 21
584.82219510669677
 31
0.0
  0
LINE
  5
623A
  8
0
 10
284.0
 20
593.32219510669677
 30
0.0
 11
284.0
 21
584.82219510669677
 31
0.0
  0
LINE
  5
623B
  8
0
 10
280.0
 20
593.32219510669677
 30
0.0
 11
280.0
 21
584.82219510669677
 31
0.0
  0
LINE
  5
623C
  8
0
 10
241.0
 20
509.82219510669671
 30
0.0
 11
241.0
 21
528.82219510669688
 31
0.0
  0
LINE
  5
623D
  8
0
 10
251.0
 20
509.82219510669671
 30
0.0
 11
251.0
 21
528.82219510669688
 31
0.0
  0
LINE
  5
623E
  8
0
 10
73.000000000000028
 20
8.8221951066968813
 30
0.0
 11
73.0
 21
508.82219510669688
 31
0.0
  0
LINE
  5
623F
  8
0
 10
50.000000000000071
 20
8.8221951066968813
 30
0.0
 11
50.0
 21
508.82219510669688
 31
0.0
  0
LINE
  5
6240
  8
0
 10
40.0
 20
8.8221951066968813
 30
0.0
 11
40.0
 21
508.82219510669688
 31
0.0
  0
LINE
  5
6241
  8
0
 10
30.0
 20
8.8221951066968813
 30
0.0
 11
30.0
 21
508.82219510669688
 31
0.0
  0
LINE
  5
6242
  8
0
 10
20.0
 20
8.8221951066968813
 30
0.0
 11
20.0
 21
508.82219510669688
 31
0.0
  0
LINE
  5
6243
  8
0
 10
83.000000000000014
 20
8.8221951066969062
 30
0.0
 11
83.0
 21
508.82219510669688
 31
0.0
  0
LINE
  5
6244
  8
0
 10
91.000000828072416
 20
8.8221951066969062
 30
0.0
 11
91.000000828072416
 21
508.8221954070392
 31
0.0
  0
LINE
  5
6245
  8
0
 10
96.000000828072359
 20
8.8221951066969062
 30
0.0
 11
96.000000828072416
 21
508.8221954070392
 31
0.0
  0
LINE
  5
6246
  8
0
 10
101.0000008280723
 20
8.8221951066969062
 30
0.0
 11
101.0000008280724
 21
508.8221954070392
 31
0.0
  0
LINE
  5
6247
  8
0
 10
106.0000008280723
 20
8.8221951066969062
 30
0.0
 11
106.0000008280724
 21
508.8221954070392
 31
0.0
  0
LINE
  5
6248
  8
0
 10
150.00000082807239
 20
8.8221951066969062
 30
0.0
 11
150.00000082807239
 21
508.8221954070392
 31
0.0
  0
LINE
  5
6249
  8
0
 10
158.0000008280725
 20
8.8221951066969062
 30
0.0
 11
158.00000082807239
 21
508.8221954070392
 31
0.0
  0
LINE
  5
624A
  8
0
 10
170.9999999999998
 20
8.8221951066969062
 30
0.0
 11
171.0
 21
508.8221954070392
 31
0.0
  0
LINE
  5
624B
  8
0
 10
176.0
 20
8.8221951066969062
 30
0.0
 11
176.0
 21
508.82219510669688
 31
0.0
  0
LINE
  5
624C
  8
0
 10
176.99999999999969
 20
8.8221951066969062
 30
0.0
 11
177.0
 21
508.82219510669688
 31
0.0
  0
LINE
  5
624D
  8
0
 10
186.99999999999989
 20
8.8221951066969062
 30
0.0
 11
187.0
 21
508.82219510669688
 31
0.0
  0
LINE
  5
624E
  8
0
 10
196.99999999999969
 20
8.8221951066969062
 30
0.0
 11
197.0
 21
508.82219510669688
 31
0.0
  0
LINE
  5
624F
  8
0
 10
205.0
 20
8.8221951066969062
 30
0.0
 11
205.0
 21
508.82193503293342
 31
0.0
  0
LINE
  5
6250
  8
0
 10
213.0
 20
8.8221951066969062
 30
0.0
 11
213.0
 21
508.82193503293342
 31
0.0
  0
LINE
  5
6251
  8
0
 10
220.9999999999998
 20
8.8221951066969382
 30
0.0
 11
221.0
 21
508.82193503293342
 31
0.0
  0
LINE
  5
6252
  8
0
 10
225.9999999999998
 20
8.8221951066969382
 30
0.0
 11
226.0
 21
508.82193503293342
 31
0.0
  0
LINE
  5
6253
  8
0
 10
230.9999999999998
 20
8.8221951066969382
 30
0.0
 11
231.0
 21
508.82219510669688
 31
0.0
  0
LINE
  5
6254
  8
0
 10
241.00000000000011
 20
8.8221951066969382
 30
0.0
 11
241.0
 21
508.82219510669688
 31
0.0
  0
LINE
  5
6256
  8
0
 10
251.0000000000002
 20
8.8221951066969382
 30
0.0
 11
251.0
 21
508.82219510669688
 31
0.0
  0
LINE
  5
6257
  8
0
 10
256.0
 20
8.8221951066969382
 30
0.0
 11
256.0
 21
508.82219510669688
 31
0.0
  0
LINE
  5
6258
  8
0
 10
261.00000000000023
 20
8.8221951066969382
 30
0.0
 11
261.0
 21
508.82219510669688
 31
0.0
  0
TEXT
  5
6259
  8
0
 10
15.663756440373
 20
317.82219510669682
 30
0.0
 40
2.0
  1
19
 72
     2
 11
18.330423107039671
 21
318.82219510669682
 31
0.0
 73
     2
  0
LINE
  5
625A
  8
0
 10
10.0
 20
308.82219510669688
 30
0.0
 11
13.0
 21
308.82219510669688
 31
0.0
  0
LINE
  5
625B
  8
0
 10
10.0
 20
309.82219510669682
 30
0.0
 11
11.0
 21
309.82219510669682
 31
0.0
  0
LINE
  5
625C
  8
0
 10
10.0
 20
318.82219510669682
 30
0.0
 11
13.0
 21
318.82219510669682
 31
0.0
  0
LINE
  5
625D
  8
0
 10
10.0
 20
317.82219510669682
 30
0.0
 11
11.0
 21
317.82219510669682
 31
0.0
  0
LINE
  5
625E
  8
0
 10
10.0
 20
316.82219510669682
 30
0.0
 11
11.0
 21
316.82219510669682
 31
0.0
  0
LINE
  5
625F
  8
0
 10
10.0
 20
315.82219510669682
 30
0.0
 11
11.0
 21
315.82219510669682
 31
0.0
  0
LINE
  5
6260
  8
0
 10
10.0
 20
314.82219510669682
 30
0.0
 11
11.0
 21
314.82219510669682
 31
0.0
  0
LINE
  5
6261
  8
0
 10
10.0
 20
313.82219510669682
 30
0.0
 11
12.0
 21
313.82219510669682
 31
0.0
  0
LINE
  5
6262
  8
0
 10
10.0
 20
310.82219510669688
 30
0.0
 11
11.0
 21
310.82219510669688
 31
0.0
  0
LINE
  5
6263
  8
0
 10
10.0
 20
311.82219510669682
 30
0.0
 11
11.0
 21
311.82219510669682
 31
0.0
  0
LINE
  5
6264
  8
0
 10
10.0
 20
312.82219510669688
 30
0.0
 11
11.0
 21
312.82219510669688
 31
0.0
  0
TEXT
  5
6265
  8
0
 10
15.330423107039669
 20
307.82219510669682
 30
0.0
 40
2.0
  1
20
 72
     2
 11
18.330423107039671
 21
308.82219510669688
 31
0.0
 73
     2
  0
LINE
  5
6266
  8
0
 10
10.0
 20
327.82219510669688
 30
0.0
 11
11.0
 21
327.82219510669688
 31
0.0
  0
LINE
  5
6267
  8
0
 10
10.0
 20
326.82219510669682
 30
0.0
 11
11.0
 21
326.82219510669682
 31
0.0
  0
LINE
  5
6268
  8
0
 10
10.0
 20
325.82219510669682
 30
0.0
 11
11.0
 21
325.82219510669682
 31
0.0
  0
LINE
  5
6269
  8
0
 10
10.0
 20
324.82219510669682
 30
0.0
 11
11.0
 21
324.82219510669682
 31
0.0
  0
LINE
  5
626A
  8
0
 10
10.0
 20
321.82219510669682
 30
0.0
 11
11.0
 21
321.82219510669682
 31
0.0
  0
LINE
  5
626B
  8
0
 10
10.0
 20
322.82219510669682
 30
0.0
 11
11.0
 21
322.82219510669682
 31
0.0
  0
LINE
  5
626C
  8
0
 10
10.0
 20
323.82219510669682
 30
0.0
 11
12.0
 21
323.82219510669682
 31
0.0
  0
LINE
  5
626D
  8
0
 10
10.0
 20
319.82219510669682
 30
0.0
 11
11.0
 21
319.82219510669682
 31
0.0
  0
LINE
  5
626E
  8
0
 10
10.0
 20
320.82219510669682
 30
0.0
 11
11.0
 21
320.82219510669682
 31
0.0
  0
LINE
  5
626F
  8
0
 10
10.0
 20
328.82219510669682
 30
0.0
 11
13.0
 21
328.82219510669682
 31
0.0
  0
LINE
  5
6270
  8
0
 10
10.0
 20
330.82219510669682
 30
0.0
 11
11.0
 21
330.82219510669682
 31
0.0
  0
LINE
  5
6271
  8
0
 10
10.0
 20
331.82219510669688
 30
0.0
 11
11.0
 21
331.82219510669688
 31
0.0
  0
LINE
  5
6272
  8
0
 10
10.0
 20
335.82219510669688
 30
0.0
 11
11.0
 21
335.82219510669688
 31
0.0
  0
LINE
  5
6273
  8
0
 10
10.0
 20
334.82219510669682
 30
0.0
 11
11.0
 21
334.82219510669682
 31
0.0
  0
LINE
  5
6274
  8
0
 10
10.0
 20
332.82219510669682
 30
0.0
 11
11.0
 21
332.82219510669682
 31
0.0
  0
LINE
  5
6275
  8
0
 10
10.0
 20
333.82219510669688
 30
0.0
 11
12.0
 21
333.82219510669688
 31
0.0
  0
LINE
  5
6276
  8
0
 10
10.0
 20
329.82219510669688
 30
0.0
 11
11.0
 21
329.82219510669688
 31
0.0
  0
TEXT
  5
6277
  8
0
 10
15.663756440373
 20
327.82219510669682
 30
0.0
 40
2.0
  1
18
 72
     2
 11
18.330423107039671
 21
328.82219510669682
 31
0.0
 73
     2
  0
LINE
  5
6278
  8
0
 10
10.0
 20
338.82219510669682
 30
0.0
 11
13.0
 21
338.82219510669682
 31
0.0
  0
LINE
  5
6279
  8
0
 10
10.0
 20
339.82219510669682
 30
0.0
 11
11.0
 21
339.82219510669682
 31
0.0
  0
LINE
  5
627A
  8
0
 10
10.0
 20
340.82219510669682
 30
0.0
 11
11.0
 21
340.82219510669682
 31
0.0
  0
LINE
  5
627B
  8
0
 10
10.0
 20
341.82219510669682
 30
0.0
 11
11.0
 21
341.82219510669682
 31
0.0
  0
LINE
  5
627C
  8
0
 10
10.0
 20
342.82219510669682
 30
0.0
 11
11.0
 21
342.82219510669682
 31
0.0
  0
LINE
  5
627D
  8
0
 10
10.0
 20
344.82219510669671
 30
0.0
 11
11.0
 21
344.82219510669671
 31
0.0
  0
LINE
  5
627E
  8
0
 10
10.0
 20
343.82219510669671
 30
0.0
 11
12.0
 21
343.82219510669671
 31
0.0
  0
LINE
  5
627F
  8
0
 10
10.0
 20
337.82219510669688
 30
0.0
 11
11.0
 21
337.82219510669688
 31
0.0
  0
LINE
  5
6280
  8
0
 10
10.0
 20
336.82219510669682
 30
0.0
 11
11.0
 21
336.82219510669682
 31
0.0
  0
LINE
  5
6281
  8
0
 10
10.0
 20
348.82219510669671
 30
0.0
 11
13.0
 21
348.82219510669671
 31
0.0
  0
LINE
  5
6282
  8
0
 10
10.0
 20
347.82219510669671
 30
0.0
 11
11.0
 21
347.82219510669671
 31
0.0
  0
LINE
  5
6283
  8
0
 10
10.0
 20
346.82219510669671
 30
0.0
 11
11.0
 21
346.82219510669671
 31
0.0
  0
LINE
  5
6284
  8
0
 10
10.0
 20
349.82219510669671
 30
0.0
 11
11.0
 21
349.82219510669671
 31
0.0
  0
LINE
  5
6285
  8
0
 10
10.0
 20
350.82219510669671
 30
0.0
 11
11.0
 21
350.82219510669671
 31
0.0
  0
LINE
  5
6286
  8
0
 10
10.0
 20
351.82219510669671
 30
0.0
 11
11.0
 21
351.82219510669671
 31
0.0
  0
LINE
  5
6287
  8
0
 10
10.0
 20
352.82219510669688
 30
0.0
 11
11.0
 21
352.82219510669688
 31
0.0
  0
LINE
  5
6288
  8
0
 10
10.0
 20
353.82219510669671
 30
0.0
 11
12.0
 21
353.82219510669671
 31
0.0
  0
LINE
  5
6289
  8
0
 10
10.0
 20
345.82219510669671
 30
0.0
 11
11.0
 21
345.82219510669671
 31
0.0
  0
TEXT
  5
628A
  8
0
 10
15.663756440373
 20
337.82219510669682
 30
0.0
 40
2.0
  1
17
 72
     2
 11
18.330423107039671
 21
338.82219510669682
 31
0.0
 73
     2
  0
TEXT
  5
628B
  8
0
 10
15.663756440373
 20
347.82219510669671
 30
0.0
 40
2.0
  1
16
 72
     2
 11
18.330423107039671
 21
348.82219510669671
 31
0.0
 73
     2
  0
LINE
  5
628C
  8
0
 10
10.0
 20
358.82219510669688
 30
0.0
 11
13.0
 21
358.82219510669688
 31
0.0
  0
LINE
  5
628D
  8
0
 10
10.0
 20
362.82219510669688
 30
0.0
 11
11.0
 21
362.82219510669688
 31
0.0
  0
LINE
  5
628E
  8
0
 10
10.0
 20
357.82219510669671
 30
0.0
 11
11.0
 21
357.82219510669671
 31
0.0
  0
LINE
  5
628F
  8
0
 10
10.0
 20
356.82219510669688
 30
0.0
 11
11.0
 21
356.82219510669688
 31
0.0
  0
LINE
  5
6290
  8
0
 10
10.0
 20
355.82219510669671
 30
0.0
 11
11.0
 21
355.82219510669671
 31
0.0
  0
LINE
  5
6291
  8
0
 10
10.0
 20
354.82219510669688
 30
0.0
 11
11.0
 21
354.82219510669688
 31
0.0
  0
LINE
  5
6292
  8
0
 10
10.0
 20
359.82219510669671
 30
0.0
 11
11.0
 21
359.82219510669671
 31
0.0
  0
LINE
  5
6293
  8
0
 10
10.0
 20
360.82219510669688
 30
0.0
 11
11.0
 21
360.82219510669688
 31
0.0
  0
LINE
  5
6294
  8
0
 10
10.0
 20
361.82219510669671
 30
0.0
 11
11.0
 21
361.82219510669671
 31
0.0
  0
LINE
  5
6295
  8
0
 10
10.0
 20
368.82219510669671
 30
0.0
 11
13.0
 21
368.82219510669671
 31
0.0
  0
LINE
  5
6296
  8
0
 10
10.0
 20
367.82219510669671
 30
0.0
 11
11.0
 21
367.82219510669671
 31
0.0
  0
LINE
  5
6297
  8
0
 10
10.0
 20
366.82219510669671
 30
0.0
 11
11.0
 21
366.82219510669671
 31
0.0
  0
LINE
  5
6298
  8
0
 10
10.0
 20
365.82219510669671
 30
0.0
 11
11.0
 21
365.82219510669671
 31
0.0
  0
LINE
  5
6299
  8
0
 10
10.0
 20
364.82219510669671
 30
0.0
 11
11.0
 21
364.82219510669671
 31
0.0
  0
LINE
  5
629A
  8
0
 10
10.0
 20
369.82219510669671
 30
0.0
 11
11.0
 21
369.82219510669671
 31
0.0
  0
LINE
  5
629B
  8
0
 10
10.0
 20
370.82219510669671
 30
0.0
 11
11.0
 21
370.82219510669671
 31
0.0
  0
LINE
  5
629C
  8
0
 10
10.0
 20
363.82219510669671
 30
0.0
 11
12.0
 21
363.82219510669671
 31
0.0
  0
TEXT
  5
629D
  8
0
 10
15.663756440373
 20
357.82219510669682
 30
0.0
 40
2.0
  1
15
 72
     2
 11
18.330423107039671
 21
358.82219510669688
 31
0.0
 73
     2
  0
TEXT
  5
629E
  8
0
 10
15.663756440373
 20
367.82219510669671
 30
0.0
 40
2.0
  1
14
 72
     2
 11
18.330423107039671
 21
368.82219510669671
 31
0.0
 73
     2
  0
TEXT
  5
629F
  8
0
 10
15.663756440373
 20
387.82219510669671
 30
0.0
 40
2.0
  1
12
 72
     2
 11
18.330423107039671
 21
388.82219510669671
 31
0.0
 73
     2
  0
LINE
  5
62A0
  8
0
 10
10.0
 20
378.82219510669671
 30
0.0
 11
13.0
 21
378.82219510669671
 31
0.0
  0
LINE
  5
62A1
  8
0
 10
10.0
 20
379.82219510669688
 30
0.0
 11
11.0
 21
379.82219510669688
 31
0.0
  0
LINE
  5
62A2
  8
0
 10
10.0
 20
374.82219510669671
 30
0.0
 11
11.0
 21
374.82219510669671
 31
0.0
  0
LINE
  5
62A3
  8
0
 10
10.0
 20
371.82219510669671
 30
0.0
 11
11.0
 21
371.82219510669671
 31
0.0
  0
LINE
  5
62A4
  8
0
 10
10.0
 20
372.82219510669671
 30
0.0
 11
11.0
 21
372.82219510669671
 31
0.0
  0
LINE
  5
62A5
  8
0
 10
10.0
 20
377.82219510669688
 30
0.0
 11
11.0
 21
377.82219510669688
 31
0.0
  0
LINE
  5
62A6
  8
0
 10
10.0
 20
376.82219510669671
 30
0.0
 11
11.0
 21
376.82219510669671
 31
0.0
  0
LINE
  5
62A7
  8
0
 10
10.0
 20
375.82219510669671
 30
0.0
 11
11.0
 21
375.82219510669671
 31
0.0
  0
LINE
  5
62A8
  8
0
 10
10.0
 20
373.82219510669671
 30
0.0
 11
12.0
 21
373.82219510669671
 31
0.0
  0
LINE
  5
62A9
  8
0
 10
10.0
 20
388.82219510669671
 30
0.0
 11
13.0
 21
388.82219510669671
 31
0.0
  0
LINE
  5
62AA
  8
0
 10
10.0
 20
387.82219510669688
 30
0.0
 11
11.0
 21
387.82219510669688
 31
0.0
  0
LINE
  5
62AB
  8
0
 10
10.0
 20
385.82219510669688
 30
0.0
 11
11.0
 21
385.82219510669688
 31
0.0
  0
LINE
  5
62AC
  8
0
 10
10.0
 20
384.82219510669671
 30
0.0
 11
11.0
 21
384.82219510669671
 31
0.0
  0
LINE
  5
62AD
  8
0
 10
10.0
 20
380.82219510669671
 30
0.0
 11
11.0
 21
380.82219510669671
 31
0.0
  0
LINE
  5
62AE
  8
0
 10
10.0
 20
381.82219510669671
 30
0.0
 11
11.0
 21
381.82219510669671
 31
0.0
  0
LINE
  5
62AF
  8
0
 10
10.0
 20
382.82219510669682
 30
0.0
 11
11.0
 21
382.82219510669682
 31
0.0
  0
LINE
  5
62B0
  8
0
 10
10.0
 20
386.82219510669671
 30
0.0
 11
11.0
 21
386.82219510669671
 31
0.0
  0
LINE
  5
62B1
  8
0
 10
10.0
 20
383.82219510669688
 30
0.0
 11
12.0
 21
383.82219510669688
 31
0.0
  0
TEXT
  5
62B2
  8
0
 10
15.663756440373
 20
377.82219510669671
 30
0.0
 40
2.0
  1
13
 72
     2
 11
18.330423107039671
 21
378.82219510669671
 31
0.0
 73
     2
  0
LINE
  5
62B3
  8
0
 10
10.0
 20
395.82219510669671
 30
0.0
 11
11.0
 21
395.82219510669671
 31
0.0
  0
LINE
  5
62B4
  8
0
 10
10.0
 20
396.82219510669671
 30
0.0
 11
11.0
 21
396.82219510669671
 31
0.0
  0
LINE
  5
62B5
  8
0
 10
10.0
 20
394.82219510669688
 30
0.0
 11
11.0
 21
394.82219510669688
 31
0.0
  0
LINE
  5
62B6
  8
0
 10
10.0
 20
389.82219510669688
 30
0.0
 11
11.0
 21
389.82219510669688
 31
0.0
  0
LINE
  5
62B7
  8
0
 10
10.0
 20
390.82219510669671
 30
0.0
 11
11.0
 21
390.82219510669671
 31
0.0
  0
LINE
  5
62B8
  8
0
 10
10.0
 20
391.82219510669671
 30
0.0
 11
11.0
 21
391.82219510669671
 31
0.0
  0
LINE
  5
62B9
  8
0
 10
10.0
 20
392.82219510669671
 30
0.0
 11
11.0
 21
392.82219510669671
 31
0.0
  0
LINE
  5
62BA
  8
0
 10
10.0
 20
393.82219510669671
 30
0.0
 11
12.0
 21
393.82219510669671
 31
0.0
  0
LINE
  5
62BB
  8
0
 10
10.0
 20
398.82219510669671
 30
0.0
 11
13.0
 21
398.82219510669671
 31
0.0
  0
LINE
  5
62BC
  8
0
 10
10.0
 20
404.82219510669688
 30
0.0
 11
11.0
 21
404.82219510669688
 31
0.0
  0
LINE
  5
62BD
  8
0
 10
10.0
 20
405.82219510669671
 30
0.0
 11
11.0
 21
405.82219510669671
 31
0.0
  0
LINE
  5
62BE
  8
0
 10
10.0
 20
403.82219510669688
 30
0.0
 11
12.0
 21
403.82219510669688
 31
0.0
  0
LINE
  5
62BF
  8
0
 10
10.0
 20
397.82219510669671
 30
0.0
 11
11.0
 21
397.82219510669671
 31
0.0
  0
LINE
  5
62C0
  8
0
 10
10.0
 20
402.82219510669671
 30
0.0
 11
11.0
 21
402.82219510669671
 31
0.0
  0
LINE
  5
62C1
  8
0
 10
10.0
 20
401.82219510669671
 30
0.0
 11
11.0
 21
401.82219510669671
 31
0.0
  0
LINE
  5
62C2
  8
0
 10
10.0
 20
400.82219510669682
 30
0.0
 11
11.0
 21
400.82219510669682
 31
0.0
  0
LINE
  5
62C3
  8
0
 10
10.0
 20
399.82219510669671
 30
0.0
 11
11.0
 21
399.82219510669671
 31
0.0
  0
TEXT
  5
62C4
  8
0
 10
16.330423107039671
 20
397.82219510669671
 30
0.0
 40
2.0
  1
11
 72
     2
 11
18.330423107039671
 21
398.82219510669671
 31
0.0
 73
     2
  0
LINE
  5
62C5
  8
0
 10
10.0
 20
406.82219510669671
 30
0.0
 11
11.0
 21
406.82219510669671
 31
0.0
  0
LINE
  5
62C6
  8
0
 10
10.0
 20
407.82219510669688
 30
0.0
 11
11.0
 21
407.82219510669688
 31
0.0
  0
LINE
  5
62C7
  8
0
 10
10.0
 20
212.8221951066968
 30
0.0
 11
11.0
 21
212.8221951066968
 31
0.0
  0
LINE
  5
62C8
  8
0
 10
10.0
 20
211.8221951066968
 30
0.0
 11
11.0
 21
211.8221951066968
 31
0.0
  0
LINE
  5
62C9
  8
0
 10
10.0
 20
210.8221951066968
 30
0.0
 11
11.0
 21
210.8221951066968
 31
0.0
  0
LINE
  5
62CA
  8
0
 10
10.0
 20
213.8221951066968
 30
0.0
 11
12.0
 21
213.8221951066968
 31
0.0
  0
LINE
  5
62CB
  8
0
 10
10.0
 20
209.8221951066968
 30
0.0
 11
11.0
 21
209.8221951066968
 31
0.0
  0
LINE
  5
62CC
  8
0
 10
10.0
 20
218.8221951066968
 30
0.0
 11
13.0
 21
218.8221951066968
 31
0.0
  0
LINE
  5
62CD
  8
0
 10
10.0
 20
220.8221951066968
 30
0.0
 11
11.0
 21
220.8221951066968
 31
0.0
  0
LINE
  5
62CE
  8
0
 10
10.0
 20
219.8221951066968
 30
0.0
 11
11.0
 21
219.8221951066968
 31
0.0
  0
LINE
  5
62CF
  8
0
 10
10.0
 20
222.8221951066968
 30
0.0
 11
11.0
 21
222.8221951066968
 31
0.0
  0
LINE
  5
62D0
  8
0
 10
10.0
 20
221.8221951066968
 30
0.0
 11
11.0
 21
221.8221951066968
 31
0.0
  0
LINE
  5
62D1
  8
0
 10
10.0
 20
214.8221951066968
 30
0.0
 11
11.0
 21
214.8221951066968
 31
0.0
  0
LINE
  5
62D2
  8
0
 10
10.0
 20
215.8221951066968
 30
0.0
 11
11.0
 21
215.8221951066968
 31
0.0
  0
LINE
  5
62D3
  8
0
 10
10.0
 20
216.8221951066968
 30
0.0
 11
11.0
 21
216.8221951066968
 31
0.0
  0
LINE
  5
62D4
  8
0
 10
10.0
 20
217.8221951066968
 30
0.0
 11
11.0
 21
217.8221951066968
 31
0.0
  0
LINE
  5
62D5
  8
0
 10
10.0
 20
228.8221951066968
 30
0.0
 11
13.0
 21
228.8221951066968
 31
0.0
  0
LINE
  5
62D6
  8
0
 10
10.0
 20
229.82219510669691
 30
0.0
 11
11.0
 21
229.82219510669691
 31
0.0
  0
LINE
  5
62D7
  8
0
 10
10.0
 20
231.82219510669691
 30
0.0
 11
11.0
 21
231.82219510669691
 31
0.0
  0
LINE
  5
62D8
  8
0
 10
10.0
 20
230.8221951066968
 30
0.0
 11
11.0
 21
230.8221951066968
 31
0.0
  0
LINE
  5
62D9
  8
0
 10
10.0
 20
223.8221951066968
 30
0.0
 11
12.0
 21
223.8221951066968
 31
0.0
  0
LINE
  5
62DA
  8
0
 10
10.0
 20
224.8221951066968
 30
0.0
 11
11.0
 21
224.8221951066968
 31
0.0
  0
LINE
  5
62DB
  8
0
 10
10.0
 20
225.8221951066968
 30
0.0
 11
11.0
 21
225.8221951066968
 31
0.0
  0
LINE
  5
62DC
  8
0
 10
10.0
 20
226.8221951066968
 30
0.0
 11
11.0
 21
226.8221951066968
 31
0.0
  0
LINE
  5
62DD
  8
0
 10
10.0
 20
227.82219510669691
 30
0.0
 11
11.0
 21
227.82219510669691
 31
0.0
  0
TEXT
  5
62DE
  8
0
 10
14.99708977370633
 20
217.8221951066968
 30
0.0
 40
2.0
  1
29
 72
     2
 11
18.330423107039671
 21
218.8221951066968
 31
0.0
 73
     2
  0
TEXT
  5
62DF
  8
0
 10
14.99708977370633
 20
227.82219510669691
 30
0.0
 40
2.0
  1
28
 72
     2
 11
18.330423107039671
 21
228.8221951066968
 31
0.0
 73
     2
  0
TEXT
  5
62E0
  8
0
 10
14.99708977370633
 20
247.8221951066968
 30
0.0
 40
2.0
  1
26
 72
     2
 11
18.330423107039671
 21
248.8221951066968
 31
0.0
 73
     2
  0
LINE
  5
62E1
  8
0
 10
10.0
 20
238.8221951066968
 30
0.0
 11
13.0
 21
238.8221951066968
 31
0.0
  0
LINE
  5
62E2
  8
0
 10
10.0
 20
233.82219510669691
 30
0.0
 11
12.0
 21
233.82219510669691
 31
0.0
  0
LINE
  5
62E3
  8
0
 10
10.0
 20
232.8221951066968
 30
0.0
 11
11.0
 21
232.8221951066968
 31
0.0
  0
LINE
  5
62E4
  8
0
 10
10.0
 20
234.8221951066968
 30
0.0
 11
11.0
 21
234.8221951066968
 31
0.0
  0
LINE
  5
62E5
  8
0
 10
10.0
 20
235.82219510669691
 30
0.0
 11
11.0
 21
235.82219510669691
 31
0.0
  0
LINE
  5
62E6
  8
0
 10
10.0
 20
236.8221951066968
 30
0.0
 11
11.0
 21
236.8221951066968
 31
0.0
  0
LINE
  5
62E7
  8
0
 10
10.0
 20
237.8221951066968
 30
0.0
 11
11.0
 21
237.8221951066968
 31
0.0
  0
LINE
  5
62E8
  8
0
 10
10.0
 20
240.8221951066968
 30
0.0
 11
11.0
 21
240.8221951066968
 31
0.0
  0
LINE
  5
62E9
  8
0
 10
10.0
 20
239.8221951066968
 30
0.0
 11
11.0
 21
239.8221951066968
 31
0.0
  0
LINE
  5
62EA
  8
0
 10
10.0
 20
248.8221951066968
 30
0.0
 11
13.0
 21
248.8221951066968
 31
0.0
  0
LINE
  5
62EB
  8
0
 10
10.0
 20
245.8221951066968
 30
0.0
 11
11.0
 21
245.8221951066968
 31
0.0
  0
LINE
  5
62EC
  8
0
 10
10.0
 20
246.8221951066968
 30
0.0
 11
11.0
 21
246.8221951066968
 31
0.0
  0
LINE
  5
62ED
  8
0
 10
10.0
 20
247.8221951066968
 30
0.0
 11
11.0
 21
247.8221951066968
 31
0.0
  0
LINE
  5
62EE
  8
0
 10
10.0
 20
243.8221951066968
 30
0.0
 11
12.0
 21
243.8221951066968
 31
0.0
  0
LINE
  5
62EF
  8
0
 10
10.0
 20
244.8221951066968
 30
0.0
 11
11.0
 21
244.8221951066968
 31
0.0
  0
LINE
  5
62F0
  8
0
 10
10.0
 20
242.8221951066968
 30
0.0
 11
11.0
 21
242.8221951066968
 31
0.0
  0
LINE
  5
62F1
  8
0
 10
10.0
 20
241.8221951066968
 30
0.0
 11
11.0
 21
241.8221951066968
 31
0.0
  0
TEXT
  5
62F2
  8
0
 10
14.997089773706341
 20
237.8221951066968
 30
0.0
 40
2.0
  1
27
 72
     2
 11
18.330423107039671
 21
238.8221951066968
 31
0.0
 73
     2
  0
LINE
  5
62F3
  8
0
 10
10.0
 20
254.82219510669691
 30
0.0
 11
11.0
 21
254.82219510669691
 31
0.0
  0
LINE
  5
62F4
  8
0
 10
10.0
 20
255.8221951066968
 30
0.0
 11
11.0
 21
255.8221951066968
 31
0.0
  0
LINE
  5
62F5
  8
0
 10
10.0
 20
256.82219510669688
 30
0.0
 11
11.0
 21
256.82219510669688
 31
0.0
  0
LINE
  5
62F6
  8
0
 10
10.0
 20
257.82219510669682
 30
0.0
 11
11.0
 21
257.82219510669682
 31
0.0
  0
LINE
  5
62F7
  8
0
 10
10.0
 20
253.8221951066968
 30
0.0
 11
12.0
 21
253.8221951066968
 31
0.0
  0
LINE
  5
62F8
  8
0
 10
10.0
 20
252.82219510669691
 30
0.0
 11
11.0
 21
252.82219510669691
 31
0.0
  0
LINE
  5
62F9
  8
0
 10
10.0
 20
251.8221951066968
 30
0.0
 11
11.0
 21
251.8221951066968
 31
0.0
  0
LINE
  5
62FA
  8
0
 10
10.0
 20
250.8221951066968
 30
0.0
 11
11.0
 21
250.8221951066968
 31
0.0
  0
LINE
  5
62FB
  8
0
 10
10.0
 20
249.8221951066968
 30
0.0
 11
11.0
 21
249.8221951066968
 31
0.0
  0
LINE
  5
62FC
  8
0
 10
10.0
 20
258.82219510669688
 30
0.0
 11
13.0
 21
258.82219510669688
 31
0.0
  0
LINE
  5
62FD
  8
0
 10
10.0
 20
263.82219510669682
 30
0.0
 11
12.0
 21
263.82219510669682
 31
0.0
  0
LINE
  5
62FE
  8
0
 10
10.0
 20
264.82219510669682
 30
0.0
 11
11.0
 21
264.82219510669682
 31
0.0
  0
LINE
  5
62FF
  8
0
 10
10.0
 20
265.82219510669682
 30
0.0
 11
11.0
 21
265.82219510669682
 31
0.0
  0
LINE
  5
6300
  8
0
 10
10.0
 20
266.82219510669682
 30
0.0
 11
11.0
 21
266.82219510669682
 31
0.0
  0
LINE
  5
6301
  8
0
 10
10.0
 20
261.82219510669682
 30
0.0
 11
11.0
 21
261.82219510669682
 31
0.0
  0
LINE
  5
6302
  8
0
 10
10.0
 20
260.82219510669688
 30
0.0
 11
11.0
 21
260.82219510669688
 31
0.0
  0
LINE
  5
6303
  8
0
 10
10.0
 20
259.82219510669682
 30
0.0
 11
11.0
 21
259.82219510669682
 31
0.0
  0
LINE
  5
6304
  8
0
 10
10.0
 20
262.82219510669682
 30
0.0
 11
11.0
 21
262.82219510669682
 31
0.0
  0
TEXT
  5
6305
  8
0
 10
14.99708977370633
 20
257.82219510669682
 30
0.0
 40
2.0
  1
25
 72
     2
 11
18.330423107039671
 21
258.82219510669688
 31
0.0
 73
     2
  0
LINE
  5
6306
  8
0
 10
10.0
 20
268.82219510669682
 30
0.0
 11
13.0
 21
268.82219510669682
 31
0.0
  0
LINE
  5
6307
  8
0
 10
10.0
 20
273.82219510669682
 30
0.0
 11
12.0
 21
273.82219510669682
 31
0.0
  0
LINE
  5
6308
  8
0
 10
10.0
 20
272.82219510669682
 30
0.0
 11
11.0
 21
272.82219510669682
 31
0.0
  0
LINE
  5
6309
  8
0
 10
10.0
 20
271.82219510669682
 30
0.0
 11
11.0
 21
271.82219510669682
 31
0.0
  0
LINE
  5
630A
  8
0
 10
10.0
 20
274.82219510669682
 30
0.0
 11
11.0
 21
274.82219510669682
 31
0.0
  0
LINE
  5
630B
  8
0
 10
10.0
 20
270.82219510669682
 30
0.0
 11
11.0
 21
270.82219510669682
 31
0.0
  0
LINE
  5
630C
  8
0
 10
10.0
 20
269.82219510669682
 30
0.0
 11
11.0
 21
269.82219510669682
 31
0.0
  0
LINE
  5
630D
  8
0
 10
10.0
 20
267.82219510669682
 30
0.0
 11
11.0
 21
267.82219510669682
 31
0.0
  0
LINE
  5
630E
  8
0
 10
10.0
 20
278.82219510669682
 30
0.0
 11
13.0
 21
278.82219510669682
 31
0.0
  0
LINE
  5
630F
  8
0
 10
10.0
 20
283.82219510669688
 30
0.0
 11
12.0
 21
283.82219510669688
 31
0.0
  0
LINE
  5
6310
  8
0
 10
10.0
 20
282.82219510669682
 30
0.0
 11
11.0
 21
282.82219510669682
 31
0.0
  0
LINE
  5
6311
  8
0
 10
10.0
 20
281.82219510669682
 30
0.0
 11
11.0
 21
281.82219510669682
 31
0.0
  0
LINE
  5
6312
  8
0
 10
10.0
 20
280.82219510669682
 30
0.0
 11
11.0
 21
280.82219510669682
 31
0.0
  0
LINE
  5
6313
  8
0
 10
10.0
 20
275.82219510669682
 30
0.0
 11
11.0
 21
275.82219510669682
 31
0.0
  0
LINE
  5
6314
  8
0
 10
10.0
 20
276.82219510669682
 30
0.0
 11
11.0
 21
276.82219510669682
 31
0.0
  0
LINE
  5
6315
  8
0
 10
10.0
 20
277.82219510669688
 30
0.0
 11
11.0
 21
277.82219510669688
 31
0.0
  0
LINE
  5
6316
  8
0
 10
10.0
 20
279.82219510669688
 30
0.0
 11
11.0
 21
279.82219510669688
 31
0.0
  0
TEXT
  5
6317
  8
0
 10
14.997089773706341
 20
267.82219510669682
 30
0.0
 40
2.0
  1
24
 72
     2
 11
18.330423107039671
 21
268.82219510669682
 31
0.0
 73
     2
  0
TEXT
  5
6318
  8
0
 10
14.99708977370633
 20
277.82219510669682
 30
0.0
 40
2.0
  1
23
 72
     2
 11
18.330423107039671
 21
278.82219510669682
 31
0.0
 73
     2
  0
LINE
  5
6319
  8
0
 10
10.0
 20
288.82219510669682
 30
0.0
 11
13.0
 21
288.82219510669682
 31
0.0
  0
LINE
  5
631A
  8
0
 10
10.0
 20
292.82219510669682
 30
0.0
 11
11.0
 21
292.82219510669682
 31
0.0
  0
LINE
  5
631B
  8
0
 10
10.0
 20
291.82219510669682
 30
0.0
 11
11.0
 21
291.82219510669682
 31
0.0
  0
LINE
  5
631C
  8
0
 10
10.0
 20
290.82219510669682
 30
0.0
 11
11.0
 21
290.82219510669682
 31
0.0
  0
LINE
  5
631D
  8
0
 10
10.0
 20
289.82219510669682
 30
0.0
 11
11.0
 21
289.82219510669682
 31
0.0
  0
LINE
  5
631E
  8
0
 10
10.0
 20
286.82219510669682
 30
0.0
 11
11.0
 21
286.82219510669682
 31
0.0
  0
LINE
  5
631F
  8
0
 10
10.0
 20
284.82219510669682
 30
0.0
 11
11.0
 21
284.82219510669682
 31
0.0
  0
LINE
  5
6320
  8
0
 10
10.0
 20
285.82219510669688
 30
0.0
 11
11.0
 21
285.82219510669688
 31
0.0
  0
LINE
  5
6321
  8
0
 10
10.0
 20
287.82219510669682
 30
0.0
 11
11.0
 21
287.82219510669682
 31
0.0
  0
LINE
  5
6322
  8
0
 10
10.0
 20
298.82219510669682
 30
0.0
 11
13.0
 21
298.82219510669682
 31
0.0
  0
LINE
  5
6323
  8
0
 10
10.0
 20
299.82219510669682
 30
0.0
 11
11.0
 21
299.82219510669682
 31
0.0
  0
LINE
  5
6324
  8
0
 10
10.0
 20
300.82219510669682
 30
0.0
 11
11.0
 21
300.82219510669682
 31
0.0
  0
LINE
  5
6325
  8
0
 10
10.0
 20
301.82219510669682
 30
0.0
 11
11.0
 21
301.82219510669682
 31
0.0
  0
LINE
  5
6326
  8
0
 10
10.0
 20
297.82219510669682
 30
0.0
 11
11.0
 21
297.82219510669682
 31
0.0
  0
LINE
  5
6327
  8
0
 10
10.0
 20
293.82219510669682
 30
0.0
 11
12.0
 21
293.82219510669682
 31
0.0
  0
LINE
  5
6328
  8
0
 10
10.0
 20
294.82219510669688
 30
0.0
 11
11.0
 21
294.82219510669688
 31
0.0
  0
LINE
  5
6329
  8
0
 10
10.0
 20
296.82219510669682
 30
0.0
 11
11.0
 21
296.82219510669682
 31
0.0
  0
LINE
  5
632A
  8
0
 10
10.0
 20
295.82219510669682
 30
0.0
 11
11.0
 21
295.82219510669682
 31
0.0
  0
TEXT
  5
632B
  8
0
 10
14.99708977370633
 20
287.82219510669682
 30
0.0
 40
2.0
  1
22
 72
     2
 11
18.330423107039671
 21
288.82219510669682
 31
0.0
 73
     2
  0
TEXT
  5
632C
  8
0
 10
15.663756440373
 20
297.82219510669682
 30
0.0
 40
2.0
  1
21
 72
     2
 11
18.330423107039671
 21
298.82219510669682
 31
0.0
 73
     2
  0
LINE
  5
632D
  8
0
 10
10.0
 20
307.82219510669682
 30
0.0
 11
11.0
 21
307.82219510669682
 31
0.0
  0
LINE
  5
632E
  8
0
 10
10.0
 20
306.82219510669688
 30
0.0
 11
11.0
 21
306.82219510669688
 31
0.0
  0
LINE
  5
632F
  8
0
 10
10.0
 20
302.82219510669688
 30
0.0
 11
11.0
 21
302.82219510669688
 31
0.0
  0
LINE
  5
6330
  8
0
 10
10.0
 20
303.82219510669682
 30
0.0
 11
12.0
 21
303.82219510669682
 31
0.0
  0
LINE
  5
6331
  8
0
 10
10.0
 20
305.82219510669682
 30
0.0
 11
11.0
 21
305.82219510669682
 31
0.0
  0
LINE
  5
6332
  8
0
 10
10.0
 20
304.82219510669688
 30
0.0
 11
11.0
 21
304.82219510669688
 31
0.0
  0
LINE
  5
6333
  8
0
 10
288.0
 20
209.8221951066968
 30
0.0
 11
287.0
 21
209.8221951066968
 31
0.0
  0
LINE
  5
6334
  8
0
 10
288.0
 20
218.8221951066968
 30
0.0
 11
285.0
 21
218.8221951066968
 31
0.0
  0
LINE
  5
6335
  8
0
 10
288.0
 20
217.8221951066968
 30
0.0
 11
287.0
 21
217.8221951066968
 31
0.0
  0
LINE
  5
6336
  8
0
 10
288.0
 20
216.8221951066968
 30
0.0
 11
287.0
 21
216.8221951066968
 31
0.0
  0
LINE
  5
6337
  8
0
 10
288.0
 20
215.8221951066968
 30
0.0
 11
287.0
 21
215.8221951066968
 31
0.0
  0
LINE
  5
6338
  8
0
 10
288.0
 20
214.8221951066968
 30
0.0
 11
287.0
 21
214.8221951066968
 31
0.0
  0
LINE
  5
6339
  8
0
 10
288.0
 20
213.8221951066968
 30
0.0
 11
286.0
 21
213.8221951066968
 31
0.0
  0
LINE
  5
633A
  8
0
 10
288.0
 20
210.8221951066968
 30
0.0
 11
287.0
 21
210.8221951066968
 31
0.0
  0
LINE
  5
633B
  8
0
 10
288.0
 20
211.8221951066968
 30
0.0
 11
287.0
 21
211.8221951066968
 31
0.0
  0
LINE
  5
633C
  8
0
 10
288.0
 20
212.8221951066968
 30
0.0
 11
287.0
 21
212.8221951066968
 31
0.0
  0
LINE
  5
633D
  8
0
 10
288.0
 20
226.8221951066968
 30
0.0
 11
287.0
 21
226.8221951066968
 31
0.0
  0
LINE
  5
633E
  8
0
 10
288.0
 20
225.8221951066968
 30
0.0
 11
287.0
 21
225.8221951066968
 31
0.0
  0
LINE
  5
633F
  8
0
 10
288.0
 20
224.8221951066968
 30
0.0
 11
287.0
 21
224.8221951066968
 31
0.0
  0
LINE
  5
6340
  8
0
 10
288.0
 20
223.8221951066968
 30
0.0
 11
286.0
 21
223.8221951066968
 31
0.0
  0
LINE
  5
6341
  8
0
 10
288.0
 20
221.8221951066968
 30
0.0
 11
287.0
 21
221.8221951066968
 31
0.0
  0
LINE
  5
6342
  8
0
 10
288.0
 20
222.8221951066968
 30
0.0
 11
287.0
 21
222.8221951066968
 31
0.0
  0
LINE
  5
6343
  8
0
 10
288.0
 20
219.8221951066968
 30
0.0
 11
287.0
 21
219.8221951066968
 31
0.0
  0
LINE
  5
6344
  8
0
 10
288.0
 20
220.8221951066968
 30
0.0
 11
287.0
 21
220.8221951066968
 31
0.0
  0
LINE
  5
6345
  8
0
 10
288.0
 20
228.8221951066968
 30
0.0
 11
285.0
 21
228.8221951066968
 31
0.0
  0
LINE
  5
6346
  8
0
 10
288.0
 20
235.82219510669691
 30
0.0
 11
287.0
 21
235.82219510669691
 31
0.0
  0
LINE
  5
6347
  8
0
 10
288.0
 20
234.8221951066968
 30
0.0
 11
287.0
 21
234.8221951066968
 31
0.0
  0
LINE
  5
6348
  8
0
 10
288.0
 20
232.8221951066968
 30
0.0
 11
287.0
 21
232.8221951066968
 31
0.0
  0
LINE
  5
6349
  8
0
 10
288.0
 20
233.82219510669691
 30
0.0
 11
286.0
 21
233.82219510669691
 31
0.0
  0
LINE
  5
634A
  8
0
 10
288.0
 20
227.82219510669691
 30
0.0
 11
287.0
 21
227.82219510669691
 31
0.0
  0
LINE
  5
634B
  8
0
 10
288.0
 20
230.8221951066968
 30
0.0
 11
287.0
 21
230.8221951066968
 31
0.0
  0
LINE
  5
634C
  8
0
 10
288.0
 20
231.82219510669691
 30
0.0
 11
287.0
 21
231.82219510669691
 31
0.0
  0
LINE
  5
634D
  8
0
 10
288.0
 20
229.82219510669691
 30
0.0
 11
287.0
 21
229.82219510669691
 31
0.0
  0
LINE
  5
634E
  8
0
 10
288.0
 20
238.8221951066968
 30
0.0
 11
285.0
 21
238.8221951066968
 31
0.0
  0
LINE
  5
634F
  8
0
 10
288.0
 20
241.8221951066968
 30
0.0
 11
287.0
 21
241.8221951066968
 31
0.0
  0
LINE
  5
6350
  8
0
 10
288.0
 20
242.8221951066968
 30
0.0
 11
287.0
 21
242.8221951066968
 31
0.0
  0
LINE
  5
6351
  8
0
 10
288.0
 20
244.8221951066968
 30
0.0
 11
287.0
 21
244.8221951066968
 31
0.0
  0
LINE
  5
6352
  8
0
 10
288.0
 20
243.8221951066968
 30
0.0
 11
286.0
 21
243.8221951066968
 31
0.0
  0
LINE
  5
6353
  8
0
 10
288.0
 20
239.8221951066968
 30
0.0
 11
287.0
 21
239.8221951066968
 31
0.0
  0
LINE
  5
6354
  8
0
 10
288.0
 20
240.8221951066968
 30
0.0
 11
287.0
 21
240.8221951066968
 31
0.0
  0
LINE
  5
6355
  8
0
 10
288.0
 20
237.8221951066968
 30
0.0
 11
287.0
 21
237.8221951066968
 31
0.0
  0
LINE
  5
6356
  8
0
 10
288.0
 20
236.8221951066968
 30
0.0
 11
287.0
 21
236.8221951066968
 31
0.0
  0
LINE
  5
6357
  8
0
 10
288.0
 20
248.8221951066968
 30
0.0
 11
285.0
 21
248.8221951066968
 31
0.0
  0
LINE
  5
6358
  8
0
 10
288.0
 20
249.8221951066968
 30
0.0
 11
287.0
 21
249.8221951066968
 31
0.0
  0
LINE
  5
6359
  8
0
 10
288.0
 20
250.8221951066968
 30
0.0
 11
287.0
 21
250.8221951066968
 31
0.0
  0
LINE
  5
635A
  8
0
 10
288.0
 20
251.8221951066968
 30
0.0
 11
287.0
 21
251.8221951066968
 31
0.0
  0
LINE
  5
635B
  8
0
 10
288.0
 20
252.82219510669691
 30
0.0
 11
287.0
 21
252.82219510669691
 31
0.0
  0
LINE
  5
635C
  8
0
 10
288.0
 20
247.8221951066968
 30
0.0
 11
287.0
 21
247.8221951066968
 31
0.0
  0
LINE
  5
635D
  8
0
 10
288.0
 20
246.8221951066968
 30
0.0
 11
287.0
 21
246.8221951066968
 31
0.0
  0
LINE
  5
635E
  8
0
 10
288.0
 20
245.8221951066968
 30
0.0
 11
287.0
 21
245.8221951066968
 31
0.0
  0
LINE
  5
635F
  8
0
 10
288.0
 20
258.82219510669688
 30
0.0
 11
285.0
 21
258.82219510669688
 31
0.0
  0
LINE
  5
6360
  8
0
 10
288.0
 20
259.82219510669682
 30
0.0
 11
287.0
 21
259.82219510669682
 31
0.0
  0
LINE
  5
6361
  8
0
 10
288.0
 20
260.82219510669688
 30
0.0
 11
287.0
 21
260.82219510669688
 31
0.0
  0
LINE
  5
6362
  8
0
 10
288.0
 20
261.82219510669682
 30
0.0
 11
287.0
 21
261.82219510669682
 31
0.0
  0
LINE
  5
6363
  8
0
 10
288.0
 20
253.8221951066968
 30
0.0
 11
286.0
 21
253.8221951066968
 31
0.0
  0
LINE
  5
6364
  8
0
 10
288.0
 20
257.82219510669682
 30
0.0
 11
287.0
 21
257.82219510669682
 31
0.0
  0
LINE
  5
6365
  8
0
 10
288.0
 20
256.82219510669688
 30
0.0
 11
287.0
 21
256.82219510669688
 31
0.0
  0
LINE
  5
6366
  8
0
 10
288.0
 20
255.8221951066968
 30
0.0
 11
287.0
 21
255.8221951066968
 31
0.0
  0
LINE
  5
6367
  8
0
 10
288.0
 20
254.82219510669691
 30
0.0
 11
287.0
 21
254.82219510669691
 31
0.0
  0
LINE
  5
6368
  8
0
 10
288.0
 20
268.82219510669682
 30
0.0
 11
285.0
 21
268.82219510669682
 31
0.0
  0
LINE
  5
6369
  8
0
 10
288.0
 20
267.82219510669682
 30
0.0
 11
287.0
 21
267.82219510669682
 31
0.0
  0
LINE
  5
636A
  8
0
 10
288.0
 20
269.82219510669682
 30
0.0
 11
287.0
 21
269.82219510669682
 31
0.0
  0
LINE
  5
636B
  8
0
 10
288.0
 20
270.82219510669682
 30
0.0
 11
287.0
 21
270.82219510669682
 31
0.0
  0
LINE
  5
636C
  8
0
 10
288.0
 20
262.82219510669682
 30
0.0
 11
287.0
 21
262.82219510669682
 31
0.0
  0
LINE
  5
636D
  8
0
 10
288.0
 20
266.82219510669682
 30
0.0
 11
287.0
 21
266.82219510669682
 31
0.0
  0
LINE
  5
636E
  8
0
 10
288.0
 20
265.82219510669682
 30
0.0
 11
287.0
 21
265.82219510669682
 31
0.0
  0
LINE
  5
636F
  8
0
 10
288.0
 20
264.82219510669682
 30
0.0
 11
287.0
 21
264.82219510669682
 31
0.0
  0
LINE
  5
6370
  8
0
 10
288.0
 20
263.82219510669682
 30
0.0
 11
286.0
 21
263.82219510669682
 31
0.0
  0
LINE
  5
6371
  8
0
 10
288.0
 20
278.82219510669682
 30
0.0
 11
285.0
 21
278.82219510669682
 31
0.0
  0
LINE
  5
6372
  8
0
 10
288.0
 20
279.82219510669688
 30
0.0
 11
287.0
 21
279.82219510669688
 31
0.0
  0
LINE
  5
6373
  8
0
 10
288.0
 20
277.82219510669688
 30
0.0
 11
287.0
 21
277.82219510669688
 31
0.0
  0
LINE
  5
6374
  8
0
 10
288.0
 20
276.82219510669682
 30
0.0
 11
287.0
 21
276.82219510669682
 31
0.0
  0
LINE
  5
6375
  8
0
 10
288.0
 20
275.82219510669682
 30
0.0
 11
287.0
 21
275.82219510669682
 31
0.0
  0
LINE
  5
6376
  8
0
 10
288.0
 20
274.82219510669682
 30
0.0
 11
287.0
 21
274.82219510669682
 31
0.0
  0
LINE
  5
6377
  8
0
 10
288.0
 20
271.82219510669682
 30
0.0
 11
287.0
 21
271.82219510669682
 31
0.0
  0
LINE
  5
6378
  8
0
 10
288.0
 20
272.82219510669682
 30
0.0
 11
287.0
 21
272.82219510669682
 31
0.0
  0
LINE
  5
6379
  8
0
 10
288.0
 20
273.82219510669682
 30
0.0
 11
286.0
 21
273.82219510669682
 31
0.0
  0
LINE
  5
637A
  8
0
 10
288.0
 20
287.82219510669682
 30
0.0
 11
287.0
 21
287.82219510669682
 31
0.0
  0
LINE
  5
637B
  8
0
 10
288.0
 20
285.82219510669688
 30
0.0
 11
287.0
 21
285.82219510669688
 31
0.0
  0
LINE
  5
637C
  8
0
 10
288.0
 20
284.82219510669682
 30
0.0
 11
287.0
 21
284.82219510669682
 31
0.0
  0
LINE
  5
637D
  8
0
 10
288.0
 20
286.82219510669682
 30
0.0
 11
287.0
 21
286.82219510669682
 31
0.0
  0
LINE
  5
637E
  8
0
 10
288.0
 20
280.82219510669682
 30
0.0
 11
287.0
 21
280.82219510669682
 31
0.0
  0
LINE
  5
637F
  8
0
 10
288.0
 20
281.82219510669682
 30
0.0
 11
287.0
 21
281.82219510669682
 31
0.0
  0
LINE
  5
6380
  8
0
 10
288.0
 20
282.82219510669682
 30
0.0
 11
287.0
 21
282.82219510669682
 31
0.0
  0
LINE
  5
6381
  8
0
 10
288.0
 20
283.82219510669688
 30
0.0
 11
286.0
 21
283.82219510669688
 31
0.0
  0
LINE
  5
6382
  8
0
 10
288.0
 20
288.82219510669682
 30
0.0
 11
285.0
 21
288.82219510669682
 31
0.0
  0
LINE
  5
6383
  8
0
 10
288.0
 20
295.82219510669682
 30
0.0
 11
287.0
 21
295.82219510669682
 31
0.0
  0
LINE
  5
6384
  8
0
 10
288.0
 20
296.82219510669682
 30
0.0
 11
287.0
 21
296.82219510669682
 31
0.0
  0
LINE
  5
6385
  8
0
 10
288.0
 20
294.82219510669688
 30
0.0
 11
287.0
 21
294.82219510669688
 31
0.0
  0
LINE
  5
6386
  8
0
 10
288.0
 20
293.82219510669682
 30
0.0
 11
286.0
 21
293.82219510669682
 31
0.0
  0
LINE
  5
6387
  8
0
 10
288.0
 20
289.82219510669682
 30
0.0
 11
287.0
 21
289.82219510669682
 31
0.0
  0
LINE
  5
6388
  8
0
 10
288.0
 20
290.82219510669682
 30
0.0
 11
287.0
 21
290.82219510669682
 31
0.0
  0
LINE
  5
6389
  8
0
 10
288.0
 20
291.82219510669682
 30
0.0
 11
287.0
 21
291.82219510669682
 31
0.0
  0
LINE
  5
638A
  8
0
 10
288.0
 20
292.82219510669682
 30
0.0
 11
287.0
 21
292.82219510669682
 31
0.0
  0
LINE
  5
638B
  8
0
 10
288.0
 20
298.82219510669682
 30
0.0
 11
285.0
 21
298.82219510669682
 31
0.0
  0
LINE
  5
638C
  8
0
 10
288.0
 20
304.82219510669688
 30
0.0
 11
287.0
 21
304.82219510669688
 31
0.0
  0
LINE
  5
638D
  8
0
 10
288.0
 20
305.82219510669682
 30
0.0
 11
287.0
 21
305.82219510669682
 31
0.0
  0
LINE
  5
638E
  8
0
 10
288.0
 20
303.82219510669682
 30
0.0
 11
286.0
 21
303.82219510669682
 31
0.0
  0
LINE
  5
638F
  8
0
 10
288.0
 20
302.82219510669688
 30
0.0
 11
287.0
 21
302.82219510669688
 31
0.0
  0
LINE
  5
6390
  8
0
 10
288.0
 20
297.82219510669682
 30
0.0
 11
287.0
 21
297.82219510669682
 31
0.0
  0
LINE
  5
6391
  8
0
 10
288.0
 20
301.82219510669682
 30
0.0
 11
287.0
 21
301.82219510669682
 31
0.0
  0
LINE
  5
6392
  8
0
 10
288.0
 20
300.82219510669682
 30
0.0
 11
287.0
 21
300.82219510669682
 31
0.0
  0
LINE
  5
6393
  8
0
 10
288.0
 20
299.82219510669682
 30
0.0
 11
287.0
 21
299.82219510669682
 31
0.0
  0
LINE
  5
6394
  8
0
 10
288.0
 20
308.82219510669688
 30
0.0
 11
285.0
 21
308.82219510669688
 31
0.0
  0
LINE
  5
6395
  8
0
 10
288.0
 20
306.82219510669688
 30
0.0
 11
287.0
 21
306.82219510669688
 31
0.0
  0
LINE
  5
6396
  8
0
 10
288.0
 20
307.82219510669682
 30
0.0
 11
287.0
 21
307.82219510669682
 31
0.0
  0
LINE
  5
6397
  8
0
 10
288.0
 20
312.82219510669688
 30
0.0
 11
287.0
 21
312.82219510669688
 31
0.0
  0
LINE
  5
6398
  8
0
 10
288.0
 20
311.82219510669682
 30
0.0
 11
287.0
 21
311.82219510669682
 31
0.0
  0
LINE
  5
6399
  8
0
 10
288.0
 20
310.82219510669688
 30
0.0
 11
287.0
 21
310.82219510669688
 31
0.0
  0
LINE
  5
639A
  8
0
 10
288.0
 20
313.82219510669682
 30
0.0
 11
286.0
 21
313.82219510669682
 31
0.0
  0
LINE
  5
639B
  8
0
 10
288.0
 20
309.82219510669682
 30
0.0
 11
287.0
 21
309.82219510669682
 31
0.0
  0
LINE
  5
639C
  8
0
 10
288.0
 20
318.82219510669682
 30
0.0
 11
285.0
 21
318.82219510669682
 31
0.0
  0
LINE
  5
639D
  8
0
 10
288.0
 20
320.82219510669682
 30
0.0
 11
287.0
 21
320.82219510669682
 31
0.0
  0
LINE
  5
639E
  8
0
 10
288.0
 20
319.82219510669682
 30
0.0
 11
287.0
 21
319.82219510669682
 31
0.0
  0
LINE
  5
639F
  8
0
 10
288.0
 20
322.82219510669682
 30
0.0
 11
287.0
 21
322.82219510669682
 31
0.0
  0
LINE
  5
63A0
  8
0
 10
288.0
 20
321.82219510669682
 30
0.0
 11
287.0
 21
321.82219510669682
 31
0.0
  0
LINE
  5
63A1
  8
0
 10
288.0
 20
314.82219510669682
 30
0.0
 11
287.0
 21
314.82219510669682
 31
0.0
  0
LINE
  5
63A2
  8
0
 10
288.0
 20
315.82219510669682
 30
0.0
 11
287.0
 21
315.82219510669682
 31
0.0
  0
LINE
  5
63A3
  8
0
 10
288.0
 20
316.82219510669682
 30
0.0
 11
287.0
 21
316.82219510669682
 31
0.0
  0
LINE
  5
63A4
  8
0
 10
288.0
 20
317.82219510669682
 30
0.0
 11
287.0
 21
317.82219510669682
 31
0.0
  0
LINE
  5
63A5
  8
0
 10
288.0
 20
328.82219510669682
 30
0.0
 11
285.0
 21
328.82219510669682
 31
0.0
  0
LINE
  5
63A6
  8
0
 10
288.0
 20
329.82219510669688
 30
0.0
 11
287.0
 21
329.82219510669688
 31
0.0
  0
LINE
  5
63A7
  8
0
 10
288.0
 20
331.82219510669688
 30
0.0
 11
287.0
 21
331.82219510669688
 31
0.0
  0
LINE
  5
63A8
  8
0
 10
288.0
 20
330.82219510669682
 30
0.0
 11
287.0
 21
330.82219510669682
 31
0.0
  0
LINE
  5
63A9
  8
0
 10
288.0
 20
323.82219510669682
 30
0.0
 11
286.0
 21
323.82219510669682
 31
0.0
  0
LINE
  5
63AA
  8
0
 10
288.0
 20
324.82219510669682
 30
0.0
 11
287.0
 21
324.82219510669682
 31
0.0
  0
LINE
  5
63AB
  8
0
 10
288.0
 20
325.82219510669682
 30
0.0
 11
287.0
 21
325.82219510669682
 31
0.0
  0
LINE
  5
63AC
  8
0
 10
288.0
 20
326.82219510669682
 30
0.0
 11
287.0
 21
326.82219510669682
 31
0.0
  0
LINE
  5
63AD
  8
0
 10
288.0
 20
327.82219510669688
 30
0.0
 11
287.0
 21
327.82219510669688
 31
0.0
  0
LINE
  5
63AE
  8
0
 10
288.0
 20
338.82219510669682
 30
0.0
 11
285.0
 21
338.82219510669682
 31
0.0
  0
LINE
  5
63AF
  8
0
 10
288.0
 20
333.82219510669688
 30
0.0
 11
286.0
 21
333.82219510669688
 31
0.0
  0
LINE
  5
63B0
  8
0
 10
288.0
 20
332.82219510669682
 30
0.0
 11
287.0
 21
332.82219510669682
 31
0.0
  0
LINE
  5
63B1
  8
0
 10
288.0
 20
334.82219510669682
 30
0.0
 11
287.0
 21
334.82219510669682
 31
0.0
  0
LINE
  5
63B2
  8
0
 10
288.0
 20
335.82219510669688
 30
0.0
 11
287.0
 21
335.82219510669688
 31
0.0
  0
LINE
  5
63B3
  8
0
 10
288.0
 20
336.82219510669682
 30
0.0
 11
287.0
 21
336.82219510669682
 31
0.0
  0
LINE
  5
63B4
  8
0
 10
288.0
 20
337.82219510669688
 30
0.0
 11
287.0
 21
337.82219510669688
 31
0.0
  0
LINE
  5
63B5
  8
0
 10
288.0
 20
340.82219510669682
 30
0.0
 11
287.0
 21
340.82219510669682
 31
0.0
  0
LINE
  5
63B6
  8
0
 10
288.0
 20
339.82219510669682
 30
0.0
 11
287.0
 21
339.82219510669682
 31
0.0
  0
LINE
  5
63B7
  8
0
 10
288.0
 20
348.82219510669671
 30
0.0
 11
285.0
 21
348.82219510669671
 31
0.0
  0
LINE
  5
63B8
  8
0
 10
288.0
 20
345.82219510669671
 30
0.0
 11
287.0
 21
345.82219510669671
 31
0.0
  0
LINE
  5
63B9
  8
0
 10
288.0
 20
346.82219510669671
 30
0.0
 11
287.0
 21
346.82219510669671
 31
0.0
  0
LINE
  5
63BA
  8
0
 10
288.0
 20
347.82219510669671
 30
0.0
 11
287.0
 21
347.82219510669671
 31
0.0
  0
LINE
  5
63BB
  8
0
 10
288.0
 20
343.82219510669671
 30
0.0
 11
286.0
 21
343.82219510669671
 31
0.0
  0
LINE
  5
63BC
  8
0
 10
288.0
 20
344.82219510669671
 30
0.0
 11
287.0
 21
344.82219510669671
 31
0.0
  0
LINE
  5
63BD
  8
0
 10
288.0
 20
342.82219510669682
 30
0.0
 11
287.0
 21
342.82219510669682
 31
0.0
  0
LINE
  5
63BE
  8
0
 10
288.0
 20
341.82219510669682
 30
0.0
 11
287.0
 21
341.82219510669682
 31
0.0
  0
LINE
  5
63BF
  8
0
 10
288.0
 20
354.82219510669688
 30
0.0
 11
287.0
 21
354.82219510669688
 31
0.0
  0
LINE
  5
63C0
  8
0
 10
288.0
 20
355.82219510669671
 30
0.0
 11
287.0
 21
355.82219510669671
 31
0.0
  0
LINE
  5
63C1
  8
0
 10
288.0
 20
356.82219510669688
 30
0.0
 11
287.0
 21
356.82219510669688
 31
0.0
  0
LINE
  5
63C2
  8
0
 10
288.0
 20
357.82219510669671
 30
0.0
 11
287.0
 21
357.82219510669671
 31
0.0
  0
LINE
  5
63C3
  8
0
 10
288.0
 20
353.82219510669671
 30
0.0
 11
286.0
 21
353.82219510669671
 31
0.0
  0
LINE
  5
63C4
  8
0
 10
288.0
 20
352.82219510669688
 30
0.0
 11
287.0
 21
352.82219510669688
 31
0.0
  0
LINE
  5
63C5
  8
0
 10
288.0
 20
351.82219510669671
 30
0.0
 11
287.0
 21
351.82219510669671
 31
0.0
  0
LINE
  5
63C6
  8
0
 10
288.0
 20
350.82219510669671
 30
0.0
 11
287.0
 21
350.82219510669671
 31
0.0
  0
LINE
  5
63C7
  8
0
 10
288.0
 20
349.82219510669671
 30
0.0
 11
287.0
 21
349.82219510669671
 31
0.0
  0
LINE
  5
63C8
  8
0
 10
288.0
 20
358.82219510669688
 30
0.0
 11
285.0
 21
358.82219510669688
 31
0.0
  0
LINE
  5
63C9
  8
0
 10
288.0
 20
363.82219510669671
 30
0.0
 11
286.0
 21
363.82219510669671
 31
0.0
  0
LINE
  5
63CA
  8
0
 10
288.0
 20
364.82219510669671
 30
0.0
 11
287.0
 21
364.82219510669671
 31
0.0
  0
LINE
  5
63CB
  8
0
 10
288.0
 20
365.82219510669671
 30
0.0
 11
287.0
 21
365.82219510669671
 31
0.0
  0
LINE
  5
63CC
  8
0
 10
288.0
 20
366.82219510669671
 30
0.0
 11
287.0
 21
366.82219510669671
 31
0.0
  0
LINE
  5
63CD
  8
0
 10
288.0
 20
361.82219510669671
 30
0.0
 11
287.0
 21
361.82219510669671
 31
0.0
  0
LINE
  5
63CE
  8
0
 10
288.0
 20
360.82219510669688
 30
0.0
 11
287.0
 21
360.82219510669688
 31
0.0
  0
LINE
  5
63CF
  8
0
 10
288.0
 20
359.82219510669671
 30
0.0
 11
287.0
 21
359.82219510669671
 31
0.0
  0
LINE
  5
63D0
  8
0
 10
288.0
 20
362.82219510669688
 30
0.0
 11
287.0
 21
362.82219510669688
 31
0.0
  0
LINE
  5
63D1
  8
0
 10
288.0
 20
368.82219510669671
 30
0.0
 11
285.0
 21
368.82219510669671
 31
0.0
  0
LINE
  5
63D2
  8
0
 10
288.0
 20
373.82219510669671
 30
0.0
 11
286.0
 21
373.82219510669671
 31
0.0
  0
LINE
  5
63D3
  8
0
 10
288.0
 20
372.82219510669671
 30
0.0
 11
287.0
 21
372.82219510669671
 31
0.0
  0
LINE
  5
63D4
  8
0
 10
288.0
 20
371.82219510669671
 30
0.0
 11
287.0
 21
371.82219510669671
 31
0.0
  0
LINE
  5
63D5
  8
0
 10
288.0
 20
374.82219510669671
 30
0.0
 11
287.0
 21
374.82219510669671
 31
0.0
  0
LINE
  5
63D6
  8
0
 10
288.0
 20
370.82219510669671
 30
0.0
 11
287.0
 21
370.82219510669671
 31
0.0
  0
LINE
  5
63D7
  8
0
 10
288.0
 20
369.82219510669671
 30
0.0
 11
287.0
 21
369.82219510669671
 31
0.0
  0
LINE
  5
63D8
  8
0
 10
288.0
 20
367.82219510669671
 30
0.0
 11
287.0
 21
367.82219510669671
 31
0.0
  0
LINE
  5
63D9
  8
0
 10
288.0
 20
378.82219510669671
 30
0.0
 11
285.0
 21
378.82219510669671
 31
0.0
  0
LINE
  5
63DA
  8
0
 10
288.0
 20
383.82219510669688
 30
0.0
 11
286.0
 21
383.82219510669688
 31
0.0
  0
LINE
  5
63DB
  8
0
 10
288.0
 20
382.82219510669682
 30
0.0
 11
287.0
 21
382.82219510669682
 31
0.0
  0
LINE
  5
63DC
  8
0
 10
288.0
 20
381.82219510669671
 30
0.0
 11
287.0
 21
381.82219510669671
 31
0.0
  0
LINE
  5
63DD
  8
0
 10
288.0
 20
380.82219510669671
 30
0.0
 11
287.0
 21
380.82219510669671
 31
0.0
  0
LINE
  5
63DE
  8
0
 10
288.0
 20
375.82219510669671
 30
0.0
 11
287.0
 21
375.82219510669671
 31
0.0
  0
LINE
  5
63DF
  8
0
 10
288.0
 20
376.82219510669671
 30
0.0
 11
287.0
 21
376.82219510669671
 31
0.0
  0
LINE
  5
63E0
  8
0
 10
288.0
 20
377.82219510669688
 30
0.0
 11
287.0
 21
377.82219510669688
 31
0.0
  0
LINE
  5
63E1
  8
0
 10
288.0
 20
379.82219510669688
 30
0.0
 11
287.0
 21
379.82219510669688
 31
0.0
  0
LINE
  5
63E2
  8
0
 10
288.0
 20
388.82219510669671
 30
0.0
 11
285.0
 21
388.82219510669671
 31
0.0
  0
LINE
  5
63E3
  8
0
 10
288.0
 20
392.82219510669671
 30
0.0
 11
287.0
 21
392.82219510669671
 31
0.0
  0
LINE
  5
63E4
  8
0
 10
288.0
 20
391.82219510669671
 30
0.0
 11
287.0
 21
391.82219510669671
 31
0.0
  0
LINE
  5
63E5
  8
0
 10
288.0
 20
390.82219510669671
 30
0.0
 11
287.0
 21
390.82219510669671
 31
0.0
  0
LINE
  5
63E6
  8
0
 10
288.0
 20
389.82219510669688
 30
0.0
 11
287.0
 21
389.82219510669688
 31
0.0
  0
LINE
  5
63E7
  8
0
 10
288.0
 20
386.82219510669671
 30
0.0
 11
287.0
 21
386.82219510669671
 31
0.0
  0
LINE
  5
63E8
  8
0
 10
288.0
 20
384.82219510669671
 30
0.0
 11
287.0
 21
384.82219510669671
 31
0.0
  0
LINE
  5
63E9
  8
0
 10
288.0
 20
385.82219510669688
 30
0.0
 11
287.0
 21
385.82219510669688
 31
0.0
  0
LINE
  5
63EA
  8
0
 10
288.0
 20
387.82219510669688
 30
0.0
 11
287.0
 21
387.82219510669688
 31
0.0
  0
LINE
  5
63EB
  8
0
 10
288.0
 20
398.82219510669671
 30
0.0
 11
285.0
 21
398.82219510669671
 31
0.0
  0
LINE
  5
63EC
  8
0
 10
288.0
 20
399.82219510669671
 30
0.0
 11
287.0
 21
399.82219510669671
 31
0.0
  0
LINE
  5
63ED
  8
0
 10
288.0
 20
400.82219510669682
 30
0.0
 11
287.0
 21
400.82219510669682
 31
0.0
  0
LINE
  5
63EE
  8
0
 10
288.0
 20
401.82219510669671
 30
0.0
 11
287.0
 21
401.82219510669671
 31
0.0
  0
LINE
  5
63EF
  8
0
 10
288.0
 20
397.82219510669671
 30
0.0
 11
287.0
 21
397.82219510669671
 31
0.0
  0
LINE
  5
63F0
  8
0
 10
288.0
 20
393.82219510669671
 30
0.0
 11
286.0
 21
393.82219510669671
 31
0.0
  0
LINE
  5
63F1
  8
0
 10
288.0
 20
394.82219510669688
 30
0.0
 11
287.0
 21
394.82219510669688
 31
0.0
  0
LINE
  5
63F2
  8
0
 10
288.0
 20
396.82219510669671
 30
0.0
 11
287.0
 21
396.82219510669671
 31
0.0
  0
LINE
  5
63F3
  8
0
 10
288.0
 20
395.82219510669671
 30
0.0
 11
287.0
 21
395.82219510669671
 31
0.0
  0
LINE
  5
63F4
  8
0
 10
288.0
 20
408.82219510669688
 30
0.0
 11
285.0
 21
408.82219510669688
 31
0.0
  0
LINE
  5
63F5
  8
0
 10
288.0
 20
407.82219510669688
 30
0.0
 11
287.0
 21
407.82219510669688
 31
0.0
  0
LINE
  5
63F6
  8
0
 10
288.0
 20
406.82219510669671
 30
0.0
 11
287.0
 21
406.82219510669671
 31
0.0
  0
LINE
  5
63F7
  8
0
 10
288.0
 20
402.82219510669671
 30
0.0
 11
287.0
 21
402.82219510669671
 31
0.0
  0
LINE
  5
63F8
  8
0
 10
288.0
 20
403.82219510669688
 30
0.0
 11
286.0
 21
403.82219510669688
 31
0.0
  0
LINE
  5
63F9
  8
0
 10
288.0
 20
405.82219510669671
 30
0.0
 11
287.0
 21
405.82219510669671
 31
0.0
  0
LINE
  5
63FA
  8
0
 10
288.0
 20
404.82219510669688
 30
0.0
 11
287.0
 21
404.82219510669688
 31
0.0
  0
LINE
  5
63FB
  8
0
 10
288.0
 20
409.82219510669671
 30
0.0
 11
287.0
 21
409.82219510669671
 31
0.0
  0
LINE
  5
63FC
  8
0
 10
288.0
 20
418.82219510669671
 30
0.0
 11
285.0
 21
418.82219510669671
 31
0.0
  0
LINE
  5
63FD
  8
0
 10
288.0
 20
417.82219510669682
 30
0.0
 11
287.0
 21
417.82219510669682
 31
0.0
  0
LINE
  5
63FE
  8
0
 10
288.0
 20
416.82219510669688
 30
0.0
 11
287.0
 21
416.82219510669688
 31
0.0
  0
LINE
  5
63FF
  8
0
 10
288.0
 20
415.82219510669671
 30
0.0
 11
287.0
 21
415.82219510669671
 31
0.0
  0
LINE
  5
6400
  8
0
 10
288.0
 20
414.82219510669671
 30
0.0
 11
287.0
 21
414.82219510669671
 31
0.0
  0
LINE
  5
6401
  8
0
 10
288.0
 20
413.82219510669671
 30
0.0
 11
286.0
 21
413.82219510669671
 31
0.0
  0
LINE
  5
6402
  8
0
 10
288.0
 20
410.82219510669671
 30
0.0
 11
287.0
 21
410.82219510669671
 31
0.0
  0
LINE
  5
6403
  8
0
 10
288.0
 20
411.82219510669688
 30
0.0
 11
287.0
 21
411.82219510669688
 31
0.0
  0
LINE
  5
6404
  8
0
 10
288.0
 20
412.82219510669688
 30
0.0
 11
287.0
 21
412.82219510669688
 31
0.0
  0
LINE
  5
6405
  8
0
 10
288.0
 20
427.82219510669671
 30
0.0
 11
287.0
 21
427.82219510669671
 31
0.0
  0
LINE
  5
6406
  8
0
 10
288.0
 20
426.82219510669671
 30
0.0
 11
287.0
 21
426.82219510669671
 31
0.0
  0
LINE
  5
6407
  8
0
 10
288.0
 20
425.82219510669682
 30
0.0
 11
287.0
 21
425.82219510669682
 31
0.0
  0
LINE
  5
6408
  8
0
 10
288.0
 20
424.82219510669688
 30
0.0
 11
287.0
 21
424.82219510669688
 31
0.0
  0
LINE
  5
6409
  8
0
 10
288.0
 20
421.82219510669682
 30
0.0
 11
287.0
 21
421.82219510669682
 31
0.0
  0
LINE
  5
640A
  8
0
 10
288.0
 20
422.82219510669671
 30
0.0
 11
287.0
 21
422.82219510669671
 31
0.0
  0
LINE
  5
640B
  8
0
 10
288.0
 20
423.82219510669671
 30
0.0
 11
286.0
 21
423.82219510669671
 31
0.0
  0
LINE
  5
640C
  8
0
 10
288.0
 20
419.82219510669671
 30
0.0
 11
287.0
 21
419.82219510669671
 31
0.0
  0
LINE
  5
640D
  8
0
 10
288.0
 20
420.82219510669688
 30
0.0
 11
287.0
 21
420.82219510669688
 31
0.0
  0
LINE
  5
640E
  8
0
 10
288.0
 20
428.82219510669688
 30
0.0
 11
285.0
 21
428.82219510669688
 31
0.0
  0
LINE
  5
640F
  8
0
 10
288.0
 20
430.82219510669671
 30
0.0
 11
287.0
 21
430.82219510669671
 31
0.0
  0
LINE
  5
6410
  8
0
 10
288.0
 20
431.82219510669671
 30
0.0
 11
287.0
 21
431.82219510669671
 31
0.0
  0
LINE
  5
6411
  8
0
 10
288.0
 20
435.82219510669671
 30
0.0
 11
287.0
 21
435.82219510669671
 31
0.0
  0
LINE
  5
6412
  8
0
 10
288.0
 20
434.82219510669671
 30
0.0
 11
287.0
 21
434.82219510669671
 31
0.0
  0
LINE
  5
6413
  8
0
 10
288.0
 20
432.82219510669688
 30
0.0
 11
287.0
 21
432.82219510669688
 31
0.0
  0
LINE
  5
6414
  8
0
 10
288.0
 20
433.82219510669688
 30
0.0
 11
286.0
 21
433.82219510669688
 31
0.0
  0
LINE
  5
6415
  8
0
 10
288.0
 20
429.82219510669688
 30
0.0
 11
287.0
 21
429.82219510669688
 31
0.0
  0
LINE
  5
6416
  8
0
 10
288.0
 20
438.82219510669671
 30
0.0
 11
285.0
 21
438.82219510669671
 31
0.0
  0
LINE
  5
6417
  8
0
 10
288.0
 20
439.82219510669671
 30
0.0
 11
287.0
 21
439.82219510669671
 31
0.0
  0
LINE
  5
6418
  8
0
 10
288.0
 20
440.82219510669688
 30
0.0
 11
287.0
 21
440.82219510669688
 31
0.0
  0
LINE
  5
6419
  8
0
 10
288.0
 20
441.82219510669688
 30
0.0
 11
287.0
 21
441.82219510669688
 31
0.0
  0
LINE
  5
641A
  8
0
 10
288.0
 20
442.82219510669682
 30
0.0
 11
287.0
 21
442.82219510669682
 31
0.0
  0
LINE
  5
641B
  8
0
 10
288.0
 20
444.82219510669671
 30
0.0
 11
287.0
 21
444.82219510669671
 31
0.0
  0
LINE
  5
641C
  8
0
 10
288.0
 20
443.82219510669671
 30
0.0
 11
286.0
 21
443.82219510669671
 31
0.0
  0
LINE
  5
641D
  8
0
 10
288.0
 20
437.82219510669688
 30
0.0
 11
287.0
 21
437.82219510669688
 31
0.0
  0
LINE
  5
641E
  8
0
 10
288.0
 20
436.82219510669688
 30
0.0
 11
287.0
 21
436.82219510669688
 31
0.0
  0
LINE
  5
641F
  8
0
 10
288.0
 20
448.82219510669671
 30
0.0
 11
285.0
 21
448.82219510669671
 31
0.0
  0
LINE
  5
6420
  8
0
 10
288.0
 20
447.82219510669671
 30
0.0
 11
287.0
 21
447.82219510669671
 31
0.0
  0
LINE
  5
6421
  8
0
 10
288.0
 20
446.82219510669682
 30
0.0
 11
287.0
 21
446.82219510669682
 31
0.0
  0
LINE
  5
6422
  8
0
 10
288.0
 20
449.82219510669688
 30
0.0
 11
287.0
 21
449.82219510669688
 31
0.0
  0
LINE
  5
6423
  8
0
 10
288.0
 20
450.82219510669682
 30
0.0
 11
287.0
 21
450.82219510669682
 31
0.0
  0
LINE
  5
6424
  8
0
 10
288.0
 20
451.82219510669671
 30
0.0
 11
287.0
 21
451.82219510669671
 31
0.0
  0
LINE
  5
6425
  8
0
 10
288.0
 20
452.82219510669671
 30
0.0
 11
287.0
 21
452.82219510669671
 31
0.0
  0
LINE
  5
6426
  8
0
 10
288.0
 20
453.82219510669688
 30
0.0
 11
286.0
 21
453.82219510669688
 31
0.0
  0
LINE
  5
6427
  8
0
 10
288.0
 20
445.82219510669688
 30
0.0
 11
287.0
 21
445.82219510669688
 31
0.0
  0
LINE
  5
6428
  8
0
 10
288.0
 20
458.82219510669688
 30
0.0
 11
285.0
 21
458.82219510669688
 31
0.0
  0
LINE
  5
6429
  8
0
 10
288.0
 20
462.82219510669688
 30
0.0
 11
287.0
 21
462.82219510669688
 31
0.0
  0
LINE
  5
642A
  8
0
 10
288.0
 20
457.82219510669688
 30
0.0
 11
287.0
 21
457.82219510669688
 31
0.0
  0
LINE
  5
642B
  8
0
 10
288.0
 20
456.82219510669671
 30
0.0
 11
287.0
 21
456.82219510669671
 31
0.0
  0
LINE
  5
642C
  8
0
 10
288.0
 20
455.82219510669671
 30
0.0
 11
287.0
 21
455.82219510669671
 31
0.0
  0
LINE
  5
642D
  8
0
 10
288.0
 20
454.82219510669688
 30
0.0
 11
287.0
 21
454.82219510669688
 31
0.0
  0
LINE
  5
642E
  8
0
 10
288.0
 20
459.82219510669671
 30
0.0
 11
287.0
 21
459.82219510669671
 31
0.0
  0
LINE
  5
642F
  8
0
 10
288.0
 20
460.82219510669671
 30
0.0
 11
287.0
 21
460.82219510669671
 31
0.0
  0
LINE
  5
6430
  8
0
 10
288.0
 20
461.82219510669688
 30
0.0
 11
287.0
 21
461.82219510669688
 31
0.0
  0
LINE
  5
6431
  8
0
 10
288.0
 20
468.82219510669671
 30
0.0
 11
285.0
 21
468.82219510669671
 31
0.0
  0
LINE
  5
6432
  8
0
 10
288.0
 20
467.82219510669682
 30
0.0
 11
287.0
 21
467.82219510669682
 31
0.0
  0
LINE
  5
6433
  8
0
 10
288.0
 20
466.82219510669688
 30
0.0
 11
287.0
 21
466.82219510669688
 31
0.0
  0
LINE
  5
6434
  8
0
 10
288.0
 20
465.82219510669688
 30
0.0
 11
287.0
 21
465.82219510669688
 31
0.0
  0
LINE
  5
6435
  8
0
 10
288.0
 20
464.82219510669671
 30
0.0
 11
287.0
 21
464.82219510669671
 31
0.0
  0
LINE
  5
6436
  8
0
 10
288.0
 20
469.82219510669671
 30
0.0
 11
287.0
 21
469.82219510669671
 31
0.0
  0
LINE
  5
6437
  8
0
 10
288.0
 20
470.82219510669688
 30
0.0
 11
287.0
 21
470.82219510669688
 31
0.0
  0
LINE
  5
6438
  8
0
 10
288.0
 20
463.82219510669671
 30
0.0
 11
286.0
 21
463.82219510669671
 31
0.0
  0
LINE
  5
6439
  8
0
 10
288.0
 20
478.82219510669688
 30
0.0
 11
285.0
 21
478.82219510669688
 31
0.0
  0
LINE
  5
643A
  8
0
 10
288.0
 20
479.82219510669688
 30
0.0
 11
287.0
 21
479.82219510669688
 31
0.0
  0
LINE
  5
643B
  8
0
 10
288.0
 20
474.82219510669688
 30
0.0
 11
287.0
 21
474.82219510669688
 31
0.0
  0
LINE
  5
643C
  8
0
 10
288.0
 20
471.82219510669682
 30
0.0
 11
287.0
 21
471.82219510669682
 31
0.0
  0
LINE
  5
643D
  8
0
 10
288.0
 20
472.82219510669671
 30
0.0
 11
287.0
 21
472.82219510669671
 31
0.0
  0
LINE
  5
643E
  8
0
 10
288.0
 20
477.82219510669671
 30
0.0
 11
287.0
 21
477.82219510669671
 31
0.0
  0
LINE
  5
643F
  8
0
 10
288.0
 20
476.82219510669671
 30
0.0
 11
287.0
 21
476.82219510669671
 31
0.0
  0
LINE
  5
6440
  8
0
 10
288.0
 20
475.82219510669682
 30
0.0
 11
287.0
 21
475.82219510669682
 31
0.0
  0
LINE
  5
6441
  8
0
 10
288.0
 20
473.82219510669671
 30
0.0
 11
286.0
 21
473.82219510669671
 31
0.0
  0
LINE
  5
6442
  8
0
 10
288.0
 20
488.82219510669671
 30
0.0
 11
285.0
 21
488.82219510669671
 31
0.0
  0
LINE
  5
6443
  8
0
 10
288.0
 20
487.82219510669688
 30
0.0
 11
287.0
 21
487.82219510669688
 31
0.0
  0
LINE
  5
6444
  8
0
 10
288.0
 20
485.82219510669671
 30
0.0
 11
287.0
 21
485.82219510669671
 31
0.0
  0
LINE
  5
6445
  8
0
 10
288.0
 20
484.82219510669671
 30
0.0
 11
287.0
 21
484.82219510669671
 31
0.0
  0
LINE
  5
6446
  8
0
 10
288.0
 20
480.82219510669671
 30
0.0
 11
287.0
 21
480.82219510669671
 31
0.0
  0
LINE
  5
6447
  8
0
 10
288.0
 20
481.82219510669671
 30
0.0
 11
287.0
 21
481.82219510669671
 31
0.0
  0
LINE
  5
6448
  8
0
 10
288.0
 20
482.82219510669688
 30
0.0
 11
287.0
 21
482.82219510669688
 31
0.0
  0
LINE
  5
6449
  8
0
 10
288.0
 20
486.82219510669688
 30
0.0
 11
287.0
 21
486.82219510669688
 31
0.0
  0
LINE
  5
644A
  8
0
 10
288.0
 20
483.82219510669688
 30
0.0
 11
286.0
 21
483.82219510669688
 31
0.0
  0
LINE
  5
644B
  8
0
 10
288.0
 20
495.82219510669688
 30
0.0
 11
287.0
 21
495.82219510669688
 31
0.0
  0
LINE
  5
644C
  8
0
 10
288.0
 20
496.82219510669682
 30
0.0
 11
287.0
 21
496.82219510669682
 31
0.0
  0
LINE
  5
644D
  8
0
 10
288.0
 20
494.82219510669671
 30
0.0
 11
287.0
 21
494.82219510669671
 31
0.0
  0
LINE
  5
644E
  8
0
 10
288.0
 20
489.82219510669671
 30
0.0
 11
287.0
 21
489.82219510669671
 31
0.0
  0
LINE
  5
644F
  8
0
 10
288.0
 20
490.82219510669688
 30
0.0
 11
287.0
 21
490.82219510669688
 31
0.0
  0
LINE
  5
6450
  8
0
 10
288.0
 20
491.82219510669688
 30
0.0
 11
287.0
 21
491.82219510669688
 31
0.0
  0
LINE
  5
6451
  8
0
 10
288.0
 20
492.82219510669682
 30
0.0
 11
287.0
 21
492.82219510669682
 31
0.0
  0
LINE
  5
6452
  8
0
 10
288.0
 20
493.82219510669671
 30
0.0
 11
286.0
 21
493.82219510669671
 31
0.0
  0
LINE
  5
6453
  8
0
 10
288.0
 20
498.82219510669671
 30
0.0
 11
285.0
 21
498.82219510669671
 31
0.0
  0
LINE
  5
6454
  8
0
 10
288.0
 20
504.82219510669688
 30
0.0
 11
287.0
 21
504.82219510669688
 31
0.0
  0
LINE
  5
6455
  8
0
 10
288.0
 20
505.82219510669671
 30
0.0
 11
287.0
 21
505.82219510669671
 31
0.0
  0
LINE
  5
6456
  8
0
 10
288.0
 20
503.82219510669688
 30
0.0
 11
286.0
 21
503.82219510669688
 31
0.0
  0
LINE
  5
6457
  8
0
 10
288.0
 20
497.82219510669671
 30
0.0
 11
287.0
 21
497.82219510669671
 31
0.0
  0
LINE
  5
6458
  8
0
 10
288.0
 20
502.82219510669671
 30
0.0
 11
287.0
 21
502.82219510669671
 31
0.0
  0
LINE
  5
6459
  8
0
 10
288.0
 20
501.82219510669671
 30
0.0
 11
287.0
 21
501.82219510669671
 31
0.0
  0
LINE
  5
645A
  8
0
 10
288.0
 20
500.82219510669682
 30
0.0
 11
287.0
 21
500.82219510669682
 31
0.0
  0
LINE
  5
645B
  8
0
 10
288.0
 20
499.82219510669688
 30
0.0
 11
287.0
 21
499.82219510669688
 31
0.0
  0
LINE
  5
645C
  8
0
 10
288.0
 20
506.82219510669671
 30
0.0
 11
287.0
 21
506.82219510669671
 31
0.0
  0
LINE
  5
645D
  8
0
 10
288.0
 20
507.82219510669688
 30
0.0
 11
287.0
 21
507.82219510669688
 31
0.0
  0
TEXT
  5
645E
  8
0
 10
195.32666484236159
 20
530.47565532799524
 30
0.0
 40
3.0
  1
地　　下　　水　　文
 72
     1
 11
212.92666484236159
 21
530.07565532799515
 31
0.0
 73
     1
  0
TEXT
  5
645F
  8
0
 10
198.46370386358581
 20
525.35016006408227
 30
0.0
 40
2.0
  1
作業日毎の孔内水位
 72
     1
 11
208.99703719691911
 21
525.08349339741562
 31
0.0
 73
     1
  0
TEXT
  5
6460
  8
0
 10
225.31935636474981
 20
525.16240994725513
 30
0.0
 40
2.5
  1
孔壁保護
 72
     1
 11
230.98602303141641
 21
524.82907661392176
 31
0.0
 73
     1
  0
TEXT
  5
6461
  8
0
 10
232.6666666666666
 20
510.92685195168508
 30
0.0
 40
2.5
  1
理 由
 72
     4
 11
236.0
 21
512.17685195168519
 31
0.0
  0
TEXT
  5
6462
  8
0
 10
232.58333333333329
 20
520.69836586051019
 30
0.0
 40
2.5
  1
実 施
 72
     4
 11
236.0
 21
521.94836586051019
 31
0.0
  0
TEXT
  5
6463
  8
0
 10
247.9601105762938
 20
526.57219510669665
 30
0.0
 40
2.5
  1
地下水検層
  7
STANDATDT
 72
     4
 11
247.9601105762938
 21
519.32219510669665
 31
0.0
  0
TEXT
  5
6464
  8
0
 10
243.79479831475291
 20
515.43741171336285
 30
0.0
 40
2.5
  1
汲
  7
STANDATDT
 72
     4
 11
243.79479831475291
 21
514.18741171336285
 31
0.0
  0
TEXT
  5
6465
  8
0
 10
243.79479831475291
 20
527.08566878681086
 30
0.0
 40
2.5
  1
方法
  7
STANDATDT
 72
     4
 11
243.79479831475291
 21
524.33566878681086
 31
0.0
  0
TEXT
  5
6466
  8
0
 10
243.88318706893361
 20
518.00190415027998
 30
0.0
 40
2.5
  1
・
  7
STANDATDT
 72
     4
 11
243.88318706893361
 21
516.58523748361335
 31
0.0
  0
TEXT
  5
6467
  8
0
 10
243.79479831475291
 20
519.95466236490734
 30
0.0
 40
2.5
  1
自
  7
STANDATDT
 72
     4
 11
243.79479831475291
 21
518.62132903157385
 31
0.0
  0
TEXT
  5
6468
  8
0
 10
253.53720931285639
 20
532.57219510669665
 30
0.0
 40
2.5
  1
保　　孔　　管
  7
STANDATDT
 72
     4
 11
253.53720931285639
 21
522.32219510669665
 31
0.0
  0
TEXT
  5
6469
  8
0
 10
258.49999999999989
 20
532.57219510669665
 30
0.0
 40
2.5
  1
計　測　機　器
  7
STANDATDT
 72
     4
 11
258.49999999999989
 21
522.32219510669665
 31
0.0
  0
TEXT
  5
646A
  8
0
 10
264.22598708334692
 20
520.8851679187776
 30
0.0
 40
2.5
  1
（　　　　　）
 72
     1
 11
274.30932041668029
 21
520.55183458544423
 31
0.0
 73
     1
  0
TEXT
  5
646B
  8
0
 10
265.70932041668021
 20
527.91273124067357
 30
0.0
 40
3.0
  1
備　　　考
 72
     1
 11
274.30932041668029
 21
527.5127312406737
 31
0.0
 73
     1
  0
TEXT
  5
646C
  8
0
 10
228.41833910692731
 20
522.78904841769474
 30
0.0
 40
2.5
  1
種　　類
  7
STANDATDT
 72
     4
 11
228.41833910692731
 21
517.03904841769474
 31
0.0
  0
TEXT
  5
646D
  8
0
 10
223.40645648222841
 20
522.85532168425436
 30
0.0
 40
2.5
  1
孔 径
  7
STANDATDT
 72
     4
 11
223.40645648222841
 21
519.35532168425436
 31
0.0
  0
TEXT
  5
646E
  8
0
 10
219.02538429870481
 20
523.18212940334979
 30
0.0
 40
2.0
  1
ケ
  7
STANDATDT
 72
     4
 11
219.02538429870481
 21
522.18212940334979
 31
0.0
  0
TEXT
  5
646F
  8
0
 10
214.9390900392535
 20
523.02531660845796
 30
0.0
 40
2.0
  1
下端深度
  7
STANDATDT
 72
     4
 11
214.9390900392535
 21
518.35864994179133
 31
0.0
  0
TEXT
  5
6470
  8
0
 10
220.47814307252131
 20
510.62786360731849
 30
0.0
 40
1.5
  1
（mm）
 72
     1
 11
223.17814307252129
 21
512.12786360731855
 31
0.0
 73
     3
  0
TEXT
  5
6471
  8
0
 10
213.55864189052579
 20
510.77479204414908
 30
0.0
 40
1.5
  1
（ｍ）
 72
     1
 11
216.00864189052581
 21
512.27479204414919
 31
0.0
 73
     3
  0
TEXT
  5
6472
  8
0
 10
206.55000000000001
 20
510.77479204414908
 30
0.0
 40
1.5
  1
（ｍ）
 72
     1
 11
209.0
 21
512.27479204414919
 31
0.0
 73
     3
  0
TEXT
  5
6473
  8
0
 10
206.0
 20
515.93721314542211
 30
0.0
 40
1.8
  1
作業後
 72
     1
 11
209.0
 21
517.73721314542195
 31
0.0
 73
     3
  0
LINE
  5
6474
  8
0
 10
205.55327652769159
 20
515.27162911286416
 30
0.0
 11
212.30281296402401
 21
515.27162911286416
 31
0.0
  0
TEXT
  5
6475
  8
0
 10
206.3544752315378
 20
518.69272062765708
 30
0.0
 40
2.0
  1
水 位
 72
     4
 11
209.0878085648711
 21
519.6927206276572
 31
0.0
  0
TEXT
  5
6476
  8
0
 10
206.4211418982045
 20
521.13719072455785
 30
0.0
 40
2.0
  1
孔 内
 72
     4
 11
209.0878085648711
 21
522.13719072455785
 31
0.0
  0
TEXT
  5
6477
  8
0
 10
200.8152283021663
 20
522.6172968645875
 30
0.0
 40
2.5
  1
掘進月日
  7
STANDATDT
 72
     4
 11
200.8152283021663
 21
516.95063019792076
 31
0.0
  0
TEXT
  5
6478
  8
0
 10
188.45617209643979
 20
510.77505211791248
 30
0.0
 40
1.5
  1
（l/分）
 72
     1
 11
192.0311720964398
 21
512.27505211791254
 31
0.0
 73
     3
  0
TEXT
  5
6479
  8
0
 10
192.2475316032295
 20
527.09706849132385
 30
0.0
 40
3.0
  1
排 水 量
  7
STANDATDT
 72
     4
 11
192.2475316032295
 21
520.19706849132388
 31
0.0
  0
TEXT
  5
647A
  8
0
 10
182.2475316032295
 20
527.09706849132385
 30
0.0
 40
3.0
  1
送 水 量
  7
STANDATDT
 72
     4
 11
182.2475316032295
 21
520.19706849132388
 31
0.0
  0
TEXT
  5
647B
  8
0
 10
178.45617209643979
 20
510.77505211791248
 30
0.0
 40
1.5
  1
（l/分）
 72
     1
 11
182.0311720964398
 21
512.27505211791254
 31
0.0
 73
     3
  0
TEXT
  5
647C
  8
0
 10
206.0
 20
512.92942044619645
 30
0.0
 40
1.8
  1
作業前
 72
     1
 11
209.0
 21
514.72942044619651
 31
0.0
 73
     3
  0
LINE
  5
647E
  8
0
 10
10.0
 20
8.8221951066968813
 30
0.0
 11
10.0
 21
508.82219510669688
 31
0.0
  0
LINE
  5
647F
  8
0
 10
10.0
 20
508.82219510669688
 30
0.0
 11
288.0
 21
508.82219510669688
 31
0.0
  0
LINE
  5
6480
  8
0
 10
288.0
 20
508.82219510669688
 30
0.0
 11
288.0
 21
8.8221951066968511
 31
0.0
  0
LINE
  5
6481
  8
0
 10
288.0
 20
8.8221951066968511
 30
0.0
 11
10.0
 21
8.8221951066968813
 31
0.0
  0
LINE
  5
6482
  8
0
 10
10.0
 20
509.82219510669671
 30
0.0
 11
10.0
 21
534.82219510669665
 31
0.0
  0
LINE
  5
6483
  8
0
 10
10.0
 20
534.82219510669665
 30
0.0
 11
288.0
 21
534.82219510669665
 31
0.0
  0
LINE
  5
6484
  8
0
 10
288.0
 20
534.82219510669665
 30
0.0
 11
288.0
 21
509.82219510669671
 31
0.0
  0
LINE
  5
6485
  8
0
 10
288.0
 20
509.82219510669671
 30
0.0
 11
10.0
 21
509.82219510669671
 31
0.0
  0
TEXT
  5
6486
  8
0
 10
245.044798314753
 20
520.68104035256295
 30
0.0
 40
2.5
  1
（
 50
270.0
  7
STANDATDT
 72
     4
 11
243.79479831475291
 21
520.68104035256295
 31
0.0
  0
TEXT
  5
6487
  8
0
 10
245.044798314753
 20
511.33748665075768
 30
0.0
 40
2.5
  1
）
 50
270.0
  7
STANDATDT
 72
     4
 11
243.79479831475291
 21
511.33748665075768
 31
0.0
  0
TEXT
  5
6488
  8
0
 10
219.02538429870481
 20
519.53131754439733
 30
0.0
 40
2.0
  1
シング
  7
STANDATDT
 72
     4
 11
219.02538429870481
 21
516.13131754439735
 31
0.0
  0
TEXT
  5
6489
  8
0
 10
219.02538429870481
 20
520.32494963313559
 30
0.0
 40
2.0
  1
-
 50
90.0
  7
STANDATDT
 72
     4
 11
219.02538429870481
 21
520.32494963313559
 31
0.0
  0
POLYLINE
  5
648A
  8
0
 66
     1
 10
0.0
 20
0.0
 30
0.0
 70
     1
  0
VERTEX
  5
6821
  8
0
 10
0.0
 20
620.0
 30
0.0
  0
VERTEX
  5
6822
  8
0
 10
297.0
 20
620.0
 30
0.0
  0
VERTEX
  5
6823
  8
0
 10
297.0
 20
0.0
 30
0.0
  0
VERTEX
  5
6824
  8
0
 10
0.0
 20
0.0
 30
0.0
  0
SEQEND
  5
6825
  8
0
  0
LINE
  5
6490
  8
0
 10
10.0
 20
208.82219510669691
 30
0.0
 11
13.0
 21
208.82219510669691
 31
0.0
  0
TEXT
  5
6491
  8
0
 10
15.330423107039669
 20
207.8221951066968
 30
0.0
 40
2.0
  1
30
 72
     2
 11
18.330423107039671
 21
208.82219510669691
 31
0.0
 73
     2
  0
TEXT
  5
6492
  8
0
 10
14.99708977370633
 20
117.8221951066969
 30
0.0
 40
2.0
  1
39
 72
     2
 11
18.330423107039671
 21
118.8221951066969
 31
0.0
 73
     2
  0
LINE
  5
6493
  8
0
 10
10.0
 20
108.8221951066969
 30
0.0
 11
13.0
 21
108.8221951066969
 31
0.0
  0
LINE
  5
6494
  8
0
 10
10.0
 20
109.8221951066969
 30
0.0
 11
11.0
 21
109.8221951066969
 31
0.0
  0
LINE
  5
6495
  8
0
 10
10.0
 20
118.8221951066969
 30
0.0
 11
13.0
 21
118.8221951066969
 31
0.0
  0
LINE
  5
6496
  8
0
 10
10.0
 20
117.8221951066969
 30
0.0
 11
11.0
 21
117.8221951066969
 31
0.0
  0
LINE
  5
6497
  8
0
 10
10.0
 20
116.8221951066969
 30
0.0
 11
11.0
 21
116.8221951066969
 31
0.0
  0
LINE
  5
6498
  8
0
 10
10.0
 20
115.8221951066969
 30
0.0
 11
11.0
 21
115.8221951066969
 31
0.0
  0
LINE
  5
6499
  8
0
 10
10.0
 20
114.8221951066969
 30
0.0
 11
11.0
 21
114.8221951066969
 31
0.0
  0
LINE
  5
649A
  8
0
 10
10.0
 20
113.8221951066969
 30
0.0
 11
12.0
 21
113.8221951066969
 31
0.0
  0
LINE
  5
649B
  8
0
 10
10.0
 20
110.8221951066969
 30
0.0
 11
11.0
 21
110.8221951066969
 31
0.0
  0
LINE
  5
649C
  8
0
 10
10.0
 20
111.8221951066969
 30
0.0
 11
11.0
 21
111.8221951066969
 31
0.0
  0
LINE
  5
649D
  8
0
 10
10.0
 20
112.8221951066969
 30
0.0
 11
11.0
 21
112.8221951066969
 31
0.0
  0
TEXT
  5
649E
  8
0
 10
15.330423107039669
 20
107.8221951066969
 30
0.0
 40
2.0
  1
40
 72
     2
 11
18.330423107039671
 21
108.8221951066969
 31
0.0
 73
     2
  0
LINE
  5
649F
  8
0
 10
10.0
 20
127.8221951066969
 30
0.0
 11
11.0
 21
127.8221951066969
 31
0.0
  0
LINE
  5
64A0
  8
0
 10
10.0
 20
126.8221951066969
 30
0.0
 11
11.0
 21
126.8221951066969
 31
0.0
  0
LINE
  5
64A1
  8
0
 10
10.0
 20
125.8221951066969
 30
0.0
 11
11.0
 21
125.8221951066969
 31
0.0
  0
LINE
  5
64A2
  8
0
 10
10.0
 20
124.8221951066969
 30
0.0
 11
11.0
 21
124.8221951066969
 31
0.0
  0
LINE
  5
64A3
  8
0
 10
10.0
 20
121.8221951066969
 30
0.0
 11
11.0
 21
121.8221951066969
 31
0.0
  0
LINE
  5
64A4
  8
0
 10
10.0
 20
122.8221951066969
 30
0.0
 11
11.0
 21
122.8221951066969
 31
0.0
  0
LINE
  5
64A5
  8
0
 10
10.0
 20
123.8221951066969
 30
0.0
 11
12.0
 21
123.8221951066969
 31
0.0
  0
LINE
  5
64A6
  8
0
 10
10.0
 20
119.8221951066969
 30
0.0
 11
11.0
 21
119.8221951066969
 31
0.0
  0
LINE
  5
64A7
  8
0
 10
10.0
 20
120.8221951066969
 30
0.0
 11
11.0
 21
120.8221951066969
 31
0.0
  0
LINE
  5
64A8
  8
0
 10
10.0
 20
128.82219510669691
 30
0.0
 11
13.0
 21
128.82219510669691
 31
0.0
  0
LINE
  5
64A9
  8
0
 10
10.0
 20
130.82219510669691
 30
0.0
 11
11.0
 21
130.82219510669691
 31
0.0
  0
LINE
  5
64AA
  8
0
 10
10.0
 20
131.82219510669691
 30
0.0
 11
11.0
 21
131.82219510669691
 31
0.0
  0
LINE
  5
64AB
  8
0
 10
10.0
 20
135.82219510669691
 30
0.0
 11
11.0
 21
135.82219510669691
 31
0.0
  0
LINE
  5
64AC
  8
0
 10
10.0
 20
134.82219510669691
 30
0.0
 11
11.0
 21
134.82219510669691
 31
0.0
  0
LINE
  5
64AD
  8
0
 10
10.0
 20
132.82219510669691
 30
0.0
 11
11.0
 21
132.82219510669691
 31
0.0
  0
LINE
  5
64AE
  8
0
 10
10.0
 20
133.82219510669691
 30
0.0
 11
12.0
 21
133.82219510669691
 31
0.0
  0
LINE
  5
64AF
  8
0
 10
10.0
 20
129.82219510669691
 30
0.0
 11
11.0
 21
129.82219510669691
 31
0.0
  0
TEXT
  5
64B0
  8
0
 10
14.99708977370633
 20
127.8221951066969
 30
0.0
 40
2.0
  1
38
 72
     2
 11
18.330423107039671
 21
128.82219510669691
 31
0.0
 73
     2
  0
LINE
  5
64B1
  8
0
 10
10.0
 20
138.82219510669691
 30
0.0
 11
13.0
 21
138.82219510669691
 31
0.0
  0
LINE
  5
64B2
  8
0
 10
10.0
 20
139.82219510669691
 30
0.0
 11
11.0
 21
139.82219510669691
 31
0.0
  0
LINE
  5
64B3
  8
0
 10
10.0
 20
140.82219510669691
 30
0.0
 11
11.0
 21
140.82219510669691
 31
0.0
  0
LINE
  5
64B4
  8
0
 10
10.0
 20
141.82219510669691
 30
0.0
 11
11.0
 21
141.82219510669691
 31
0.0
  0
LINE
  5
64B5
  8
0
 10
10.0
 20
142.82219510669691
 30
0.0
 11
11.0
 21
142.82219510669691
 31
0.0
  0
LINE
  5
64B6
  8
0
 10
10.0
 20
144.82219510669691
 30
0.0
 11
11.0
 21
144.82219510669691
 31
0.0
  0
LINE
  5
64B7
  8
0
 10
10.0
 20
143.82219510669691
 30
0.0
 11
12.0
 21
143.82219510669691
 31
0.0
  0
LINE
  5
64B8
  8
0
 10
10.0
 20
137.82219510669691
 30
0.0
 11
11.0
 21
137.82219510669691
 31
0.0
  0
LINE
  5
64B9
  8
0
 10
10.0
 20
136.82219510669691
 30
0.0
 11
11.0
 21
136.82219510669691
 31
0.0
  0
LINE
  5
64BA
  8
0
 10
10.0
 20
148.82219510669691
 30
0.0
 11
13.0
 21
148.82219510669691
 31
0.0
  0
LINE
  5
64BB
  8
0
 10
10.0
 20
147.82219510669691
 30
0.0
 11
11.0
 21
147.82219510669691
 31
0.0
  0
LINE
  5
64BC
  8
0
 10
10.0
 20
146.82219510669691
 30
0.0
 11
11.0
 21
146.82219510669691
 31
0.0
  0
LINE
  5
64BD
  8
0
 10
10.0
 20
149.82219510669691
 30
0.0
 11
11.0
 21
149.82219510669691
 31
0.0
  0
LINE
  5
64BE
  8
0
 10
10.0
 20
150.82219510669691
 30
0.0
 11
11.0
 21
150.82219510669691
 31
0.0
  0
LINE
  5
64BF
  8
0
 10
10.0
 20
151.82219510669691
 30
0.0
 11
11.0
 21
151.82219510669691
 31
0.0
  0
LINE
  5
64C0
  8
0
 10
10.0
 20
152.82219510669691
 30
0.0
 11
11.0
 21
152.82219510669691
 31
0.0
  0
LINE
  5
64C1
  8
0
 10
10.0
 20
153.82219510669691
 30
0.0
 11
12.0
 21
153.82219510669691
 31
0.0
  0
LINE
  5
64C2
  8
0
 10
10.0
 20
145.82219510669691
 30
0.0
 11
11.0
 21
145.82219510669691
 31
0.0
  0
TEXT
  5
64C3
  8
0
 10
14.997089773706341
 20
137.82219510669691
 30
0.0
 40
2.0
  1
37
 72
     2
 11
18.330423107039671
 21
138.82219510669691
 31
0.0
 73
     2
  0
TEXT
  5
64C4
  8
0
 10
14.99708977370633
 20
147.82219510669691
 30
0.0
 40
2.0
  1
36
 72
     2
 11
18.330423107039671
 21
148.82219510669691
 31
0.0
 73
     2
  0
LINE
  5
64C5
  8
0
 10
10.0
 20
158.82219510669691
 30
0.0
 11
13.0
 21
158.82219510669691
 31
0.0
  0
LINE
  5
64C6
  8
0
 10
10.0
 20
162.82219510669691
 30
0.0
 11
11.0
 21
162.82219510669691
 31
0.0
  0
LINE
  5
64C7
  8
0
 10
10.0
 20
157.82219510669691
 30
0.0
 11
11.0
 21
157.82219510669691
 31
0.0
  0
LINE
  5
64C8
  8
0
 10
10.0
 20
156.82219510669691
 30
0.0
 11
11.0
 21
156.82219510669691
 31
0.0
  0
LINE
  5
64C9
  8
0
 10
10.0
 20
155.8221951066968
 30
0.0
 11
11.0
 21
155.8221951066968
 31
0.0
  0
LINE
  5
64CA
  8
0
 10
10.0
 20
154.82219510669691
 30
0.0
 11
11.0
 21
154.82219510669691
 31
0.0
  0
LINE
  5
64CB
  8
0
 10
10.0
 20
159.82219510669691
 30
0.0
 11
11.0
 21
159.82219510669691
 31
0.0
  0
LINE
  5
64CC
  8
0
 10
10.0
 20
160.82219510669691
 30
0.0
 11
11.0
 21
160.82219510669691
 31
0.0
  0
LINE
  5
64CD
  8
0
 10
10.0
 20
161.82219510669691
 30
0.0
 11
11.0
 21
161.82219510669691
 31
0.0
  0
LINE
  5
64CE
  8
0
 10
10.0
 20
168.82219510669691
 30
0.0
 11
13.0
 21
168.82219510669691
 31
0.0
  0
LINE
  5
64CF
  8
0
 10
10.0
 20
167.82219510669691
 30
0.0
 11
11.0
 21
167.82219510669691
 31
0.0
  0
LINE
  5
64D0
  8
0
 10
10.0
 20
166.82219510669691
 30
0.0
 11
11.0
 21
166.82219510669691
 31
0.0
  0
LINE
  5
64D1
  8
0
 10
10.0
 20
165.82219510669691
 30
0.0
 11
11.0
 21
165.82219510669691
 31
0.0
  0
LINE
  5
64D2
  8
0
 10
10.0
 20
164.82219510669691
 30
0.0
 11
11.0
 21
164.82219510669691
 31
0.0
  0
LINE
  5
64D3
  8
0
 10
10.0
 20
169.82219510669691
 30
0.0
 11
11.0
 21
169.82219510669691
 31
0.0
  0
LINE
  5
64D4
  8
0
 10
10.0
 20
170.82219510669691
 30
0.0
 11
11.0
 21
170.82219510669691
 31
0.0
  0
LINE
  5
64D5
  8
0
 10
10.0
 20
163.82219510669691
 30
0.0
 11
12.0
 21
163.82219510669691
 31
0.0
  0
TEXT
  5
64D6
  8
0
 10
14.99708977370633
 20
157.82219510669691
 30
0.0
 40
2.0
  1
35
 72
     2
 11
18.330423107039671
 21
158.82219510669691
 31
0.0
 73
     2
  0
TEXT
  5
64D7
  8
0
 10
14.997089773706341
 20
167.82219510669691
 30
0.0
 40
2.0
  1
34
 72
     2
 11
18.330423107039671
 21
168.82219510669691
 31
0.0
 73
     2
  0
TEXT
  5
64D8
  8
0
 10
14.99708977370633
 20
187.8221951066968
 30
0.0
 40
2.0
  1
32
 72
     2
 11
18.330423107039671
 21
188.8221951066968
 31
0.0
 73
     2
  0
LINE
  5
64D9
  8
0
 10
10.0
 20
178.8221951066968
 30
0.0
 11
13.0
 21
178.8221951066968
 31
0.0
  0
LINE
  5
64DA
  8
0
 10
10.0
 20
179.8221951066968
 30
0.0
 11
11.0
 21
179.8221951066968
 31
0.0
  0
LINE
  5
64DB
  8
0
 10
10.0
 20
174.8221951066968
 30
0.0
 11
11.0
 21
174.8221951066968
 31
0.0
  0
LINE
  5
64DC
  8
0
 10
10.0
 20
171.8221951066968
 30
0.0
 11
11.0
 21
171.8221951066968
 31
0.0
  0
LINE
  5
64DD
  8
0
 10
10.0
 20
172.8221951066968
 30
0.0
 11
11.0
 21
172.8221951066968
 31
0.0
  0
LINE
  5
64DE
  8
0
 10
10.0
 20
177.8221951066968
 30
0.0
 11
11.0
 21
177.8221951066968
 31
0.0
  0
LINE
  5
64DF
  8
0
 10
10.0
 20
176.8221951066968
 30
0.0
 11
11.0
 21
176.8221951066968
 31
0.0
  0
LINE
  5
64E0
  8
0
 10
10.0
 20
175.8221951066968
 30
0.0
 11
11.0
 21
175.8221951066968
 31
0.0
  0
LINE
  5
64E1
  8
0
 10
10.0
 20
173.8221951066968
 30
0.0
 11
12.0
 21
173.8221951066968
 31
0.0
  0
LINE
  5
64E2
  8
0
 10
10.0
 20
188.8221951066968
 30
0.0
 11
13.0
 21
188.8221951066968
 31
0.0
  0
LINE
  5
64E3
  8
0
 10
10.0
 20
187.8221951066968
 30
0.0
 11
11.0
 21
187.8221951066968
 31
0.0
  0
LINE
  5
64E4
  8
0
 10
10.0
 20
185.8221951066968
 30
0.0
 11
11.0
 21
185.8221951066968
 31
0.0
  0
LINE
  5
64E5
  8
0
 10
10.0
 20
184.8221951066968
 30
0.0
 11
11.0
 21
184.8221951066968
 31
0.0
  0
LINE
  5
64E6
  8
0
 10
10.0
 20
180.8221951066968
 30
0.0
 11
11.0
 21
180.8221951066968
 31
0.0
  0
LINE
  5
64E7
  8
0
 10
10.0
 20
181.8221951066968
 30
0.0
 11
11.0
 21
181.8221951066968
 31
0.0
  0
LINE
  5
64E8
  8
0
 10
10.0
 20
182.8221951066968
 30
0.0
 11
11.0
 21
182.8221951066968
 31
0.0
  0
LINE
  5
64E9
  8
0
 10
10.0
 20
186.8221951066968
 30
0.0
 11
11.0
 21
186.8221951066968
 31
0.0
  0
LINE
  5
64EA
  8
0
 10
10.0
 20
183.8221951066968
 30
0.0
 11
12.0
 21
183.8221951066968
 31
0.0
  0
TEXT
  5
64EB
  8
0
 10
14.99708977370633
 20
177.8221951066968
 30
0.0
 40
2.0
  1
33
 72
     2
 11
18.330423107039671
 21
178.8221951066968
 31
0.0
 73
     2
  0
LINE
  5
64EC
  8
0
 10
10.0
 20
195.8221951066968
 30
0.0
 11
11.0
 21
195.8221951066968
 31
0.0
  0
LINE
  5
64ED
  8
0
 10
10.0
 20
196.8221951066968
 30
0.0
 11
11.0
 21
196.8221951066968
 31
0.0
  0
LINE
  5
64EE
  8
0
 10
10.0
 20
194.82219510669691
 30
0.0
 11
11.0
 21
194.82219510669691
 31
0.0
  0
LINE
  5
64EF
  8
0
 10
10.0
 20
189.8221951066968
 30
0.0
 11
11.0
 21
189.8221951066968
 31
0.0
  0
LINE
  5
64F0
  8
0
 10
10.0
 20
190.8221951066968
 30
0.0
 11
11.0
 21
190.8221951066968
 31
0.0
  0
LINE
  5
64F1
  8
0
 10
10.0
 20
191.8221951066968
 30
0.0
 11
11.0
 21
191.8221951066968
 31
0.0
  0
LINE
  5
64F2
  8
0
 10
10.0
 20
192.8221951066968
 30
0.0
 11
11.0
 21
192.8221951066968
 31
0.0
  0
LINE
  5
64F3
  8
0
 10
10.0
 20
193.8221951066968
 30
0.0
 11
12.0
 21
193.8221951066968
 31
0.0
  0
LINE
  5
64F4
  8
0
 10
10.0
 20
198.8221951066968
 30
0.0
 11
13.0
 21
198.8221951066968
 31
0.0
  0
LINE
  5
64F5
  8
0
 10
10.0
 20
204.82219510669691
 30
0.0
 11
11.0
 21
204.82219510669691
 31
0.0
  0
LINE
  5
64F6
  8
0
 10
10.0
 20
205.8221951066968
 30
0.0
 11
11.0
 21
205.8221951066968
 31
0.0
  0
LINE
  5
64F7
  8
0
 10
10.0
 20
203.8221951066968
 30
0.0
 11
12.0
 21
203.8221951066968
 31
0.0
  0
LINE
  5
64F8
  8
0
 10
10.0
 20
197.8221951066968
 30
0.0
 11
11.0
 21
197.8221951066968
 31
0.0
  0
LINE
  5
64F9
  8
0
 10
10.0
 20
202.82219510669691
 30
0.0
 11
11.0
 21
202.82219510669691
 31
0.0
  0
LINE
  5
64FA
  8
0
 10
10.0
 20
201.8221951066968
 30
0.0
 11
11.0
 21
201.8221951066968
 31
0.0
  0
LINE
  5
64FB
  8
0
 10
10.0
 20
200.8221951066968
 30
0.0
 11
11.0
 21
200.8221951066968
 31
0.0
  0
LINE
  5
64FC
  8
0
 10
10.0
 20
199.8221951066968
 30
0.0
 11
11.0
 21
199.8221951066968
 31
0.0
  0
TEXT
  5
64FD
  8
0
 10
15.663756440373
 20
197.8221951066968
 30
0.0
 40
2.0
  1
31
 72
     2
 11
18.330423107039671
 21
198.8221951066968
 31
0.0
 73
     2
  0
LINE
  5
64FE
  8
0
 10
10.0
 20
206.82219510669691
 30
0.0
 11
11.0
 21
206.82219510669691
 31
0.0
  0
LINE
  5
64FF
  8
0
 10
10.0
 20
207.8221951066968
 30
0.0
 11
11.0
 21
207.8221951066968
 31
0.0
  0
LINE
  5
6500
  8
0
 10
10.0
 20
12.82219510669692
 30
0.0
 11
11.0
 21
12.82219510669692
 31
0.0
  0
LINE
  5
6501
  8
0
 10
10.0
 20
11.82219510669692
 30
0.0
 11
11.0
 21
11.82219510669692
 31
0.0
  0
LINE
  5
6502
  8
0
 10
10.0
 20
10.82219510669692
 30
0.0
 11
11.0
 21
10.82219510669692
 31
0.0
  0
LINE
  5
6503
  8
0
 10
10.0
 20
13.82219510669692
 30
0.0
 11
12.0
 21
13.82219510669692
 31
0.0
  0
LINE
  5
6504
  8
0
 10
10.0
 20
9.8221951066969382
 30
0.0
 11
11.0
 21
9.8221951066969382
 31
0.0
  0
TEXT
  5
6505
  8
0
 10
15.330423107039669
 20
9.0175770305732499
 30
0.0
 40
2.0
  1
50
 72
     2
 11
18.330423107039671
 21
10.01757703057325
 31
0.0
 73
     2
  0
LINE
  5
6506
  8
0
 10
10.0
 20
18.82219510669692
 30
0.0
 11
13.0
 21
18.82219510669692
 31
0.0
  0
LINE
  5
6507
  8
0
 10
10.0
 20
20.82219510669692
 30
0.0
 11
11.0
 21
20.82219510669692
 31
0.0
  0
LINE
  5
6508
  8
0
 10
10.0
 20
19.82219510669692
 30
0.0
 11
11.0
 21
19.82219510669692
 31
0.0
  0
LINE
  5
6509
  8
0
 10
10.0
 20
22.822195106696942
 30
0.0
 11
11.0
 21
22.822195106696942
 31
0.0
  0
LINE
  5
650A
  8
0
 10
10.0
 20
21.82219510669692
 30
0.0
 11
11.0
 21
21.82219510669692
 31
0.0
  0
LINE
  5
650B
  8
0
 10
10.0
 20
14.82219510669692
 30
0.0
 11
11.0
 21
14.82219510669692
 31
0.0
  0
LINE
  5
650C
  8
0
 10
10.0
 20
15.82219510669692
 30
0.0
 11
11.0
 21
15.82219510669692
 31
0.0
  0
LINE
  5
650D
  8
0
 10
10.0
 20
16.822195106696931
 30
0.0
 11
11.0
 21
16.822195106696931
 31
0.0
  0
LINE
  5
650E
  8
0
 10
10.0
 20
17.822195106696931
 30
0.0
 11
11.0
 21
17.822195106696931
 31
0.0
  0
LINE
  5
650F
  8
0
 10
10.0
 20
28.822195106696942
 30
0.0
 11
13.0
 21
28.822195106696942
 31
0.0
  0
LINE
  5
6510
  8
0
 10
10.0
 20
29.822195106696931
 30
0.0
 11
11.0
 21
29.822195106696931
 31
0.0
  0
LINE
  5
6511
  8
0
 10
10.0
 20
31.822195106696931
 30
0.0
 11
11.0
 21
31.822195106696931
 31
0.0
  0
LINE
  5
6512
  8
0
 10
10.0
 20
30.822195106696931
 30
0.0
 11
11.0
 21
30.822195106696931
 31
0.0
  0
LINE
  5
6513
  8
0
 10
10.0
 20
23.822195106696931
 30
0.0
 11
12.0
 21
23.822195106696931
 31
0.0
  0
LINE
  5
6514
  8
0
 10
10.0
 20
24.822195106696931
 30
0.0
 11
11.0
 21
24.822195106696931
 31
0.0
  0
LINE
  5
6515
  8
0
 10
10.0
 20
25.822195106696931
 30
0.0
 11
11.0
 21
25.822195106696931
 31
0.0
  0
LINE
  5
6516
  8
0
 10
10.0
 20
26.822195106696931
 30
0.0
 11
11.0
 21
26.822195106696931
 31
0.0
  0
LINE
  5
6517
  8
0
 10
10.0
 20
27.822195106696942
 30
0.0
 11
11.0
 21
27.822195106696942
 31
0.0
  0
TEXT
  5
6518
  8
0
 10
14.99708977370633
 20
17.82219510669692
 30
0.0
 40
2.0
  1
49
 72
     2
 11
18.330423107039671
 21
18.82219510669692
 31
0.0
 73
     2
  0
TEXT
  5
6519
  8
0
 10
14.99708977370633
 20
27.822195106696942
 30
0.0
 40
2.0
  1
48
 72
     2
 11
18.330423107039671
 21
28.822195106696942
 31
0.0
 73
     2
  0
TEXT
  5
651A
  8
0
 10
14.99708977370633
 20
47.822195106696931
 30
0.0
 40
2.0
  1
46
 72
     2
 11
18.330423107039671
 21
48.822195106696938
 31
0.0
 73
     2
  0
LINE
  5
651B
  8
0
 10
10.0
 20
38.822195106696938
 30
0.0
 11
13.0
 21
38.822195106696938
 31
0.0
  0
LINE
  5
651C
  8
0
 10
10.0
 20
33.822195106696938
 30
0.0
 11
12.0
 21
33.822195106696938
 31
0.0
  0
LINE
  5
651D
  8
0
 10
10.0
 20
32.822195106696938
 30
0.0
 11
11.0
 21
32.822195106696938
 31
0.0
  0
LINE
  5
651E
  8
0
 10
10.0
 20
34.822195106696931
 30
0.0
 11
11.0
 21
34.822195106696931
 31
0.0
  0
LINE
  5
651F
  8
0
 10
10.0
 20
35.822195106696931
 30
0.0
 11
11.0
 21
35.822195106696931
 31
0.0
  0
LINE
  5
6520
  8
0
 10
10.0
 20
36.822195106696931
 30
0.0
 11
11.0
 21
36.822195106696931
 31
0.0
  0
LINE
  5
6521
  8
0
 10
10.0
 20
37.822195106696938
 30
0.0
 11
11.0
 21
37.822195106696938
 31
0.0
  0
LINE
  5
6522
  8
0
 10
10.0
 20
40.822195106696938
 30
0.0
 11
11.0
 21
40.822195106696938
 31
0.0
  0
LINE
  5
6523
  8
0
 10
10.0
 20
39.822195106696931
 30
0.0
 11
11.0
 21
39.822195106696931
 31
0.0
  0
LINE
  5
6524
  8
0
 10
10.0
 20
48.822195106696938
 30
0.0
 11
13.0
 21
48.822195106696938
 31
0.0
  0
LINE
  5
6525
  8
0
 10
10.0
 20
45.822195106696938
 30
0.0
 11
11.0
 21
45.822195106696938
 31
0.0
  0
LINE
  5
6526
  8
0
 10
10.0
 20
46.822195106696931
 30
0.0
 11
11.0
 21
46.822195106696931
 31
0.0
  0
LINE
  5
6527
  8
0
 10
10.0
 20
47.822195106696931
 30
0.0
 11
11.0
 21
47.822195106696931
 31
0.0
  0
LINE
  5
6528
  8
0
 10
10.0
 20
43.822195106696938
 30
0.0
 11
12.0
 21
43.822195106696938
 31
0.0
  0
LINE
  5
6529
  8
0
 10
10.0
 20
44.822195106696917
 30
0.0
 11
11.0
 21
44.822195106696917
 31
0.0
  0
LINE
  5
652A
  8
0
 10
10.0
 20
42.822195106696931
 30
0.0
 11
11.0
 21
42.822195106696931
 31
0.0
  0
LINE
  5
652B
  8
0
 10
10.0
 20
41.822195106696931
 30
0.0
 11
11.0
 21
41.822195106696931
 31
0.0
  0
TEXT
  5
652C
  8
0
 10
14.997089773706341
 20
37.822195106696938
 30
0.0
 40
2.0
  1
47
 72
     2
 11
18.330423107039671
 21
38.822195106696938
 31
0.0
 73
     2
  0
LINE
  5
652D
  8
0
 10
10.0
 20
54.822195106696931
 30
0.0
 11
11.0
 21
54.822195106696931
 31
0.0
  0
LINE
  5
652E
  8
0
 10
10.0
 20
55.822195106696938
 30
0.0
 11
11.0
 21
55.822195106696938
 31
0.0
  0
LINE
  5
652F
  8
0
 10
10.0
 20
56.822195106696931
 30
0.0
 11
11.0
 21
56.822195106696931
 31
0.0
  0
LINE
  5
6530
  8
0
 10
10.0
 20
57.822195106696938
 30
0.0
 11
11.0
 21
57.822195106696938
 31
0.0
  0
LINE
  5
6531
  8
0
 10
10.0
 20
53.822195106696938
 30
0.0
 11
12.0
 21
53.822195106696938
 31
0.0
  0
LINE
  5
6532
  8
0
 10
10.0
 20
52.822195106696938
 30
0.0
 11
11.0
 21
52.822195106696938
 31
0.0
  0
LINE
  5
6533
  8
0
 10
10.0
 20
51.822195106696931
 30
0.0
 11
11.0
 21
51.822195106696931
 31
0.0
  0
LINE
  5
6534
  8
0
 10
10.0
 20
50.822195106696938
 30
0.0
 11
11.0
 21
50.822195106696938
 31
0.0
  0
LINE
  5
6535
  8
0
 10
10.0
 20
49.822195106696931
 30
0.0
 11
11.0
 21
49.822195106696931
 31
0.0
  0
LINE
  5
6536
  8
0
 10
10.0
 20
58.822195106696938
 30
0.0
 11
13.0
 21
58.822195106696938
 31
0.0
  0
LINE
  5
6537
  8
0
 10
10.0
 20
63.822195106696938
 30
0.0
 11
12.0
 21
63.822195106696938
 31
0.0
  0
LINE
  5
6538
  8
0
 10
10.0
 20
64.822195106696924
 30
0.0
 11
11.0
 21
64.822195106696924
 31
0.0
  0
LINE
  5
6539
  8
0
 10
10.0
 20
65.822195106696938
 30
0.0
 11
11.0
 21
65.822195106696938
 31
0.0
  0
LINE
  5
653A
  8
0
 10
10.0
 20
66.822195106696924
 30
0.0
 11
11.0
 21
66.822195106696924
 31
0.0
  0
LINE
  5
653B
  8
0
 10
10.0
 20
61.822195106696931
 30
0.0
 11
11.0
 21
61.822195106696931
 31
0.0
  0
LINE
  5
653C
  8
0
 10
10.0
 20
60.822195106696938
 30
0.0
 11
11.0
 21
60.822195106696938
 31
0.0
  0
LINE
  5
653D
  8
0
 10
10.0
 20
59.822195106696931
 30
0.0
 11
11.0
 21
59.822195106696931
 31
0.0
  0
LINE
  5
653E
  8
0
 10
10.0
 20
62.822195106696938
 30
0.0
 11
11.0
 21
62.822195106696938
 31
0.0
  0
TEXT
  5
653F
  8
0
 10
14.99708977370633
 20
57.822195106696938
 30
0.0
 40
2.0
  1
45
 72
     2
 11
18.330423107039671
 21
58.822195106696938
 31
0.0
 73
     2
  0
LINE
  5
6540
  8
0
 10
10.0
 20
68.822195106696938
 30
0.0
 11
13.0
 21
68.822195106696938
 31
0.0
  0
LINE
  5
6541
  8
0
 10
10.0
 20
73.822195106696938
 30
0.0
 11
12.0
 21
73.822195106696938
 31
0.0
  0
LINE
  5
6542
  8
0
 10
10.0
 20
72.822195106696938
 30
0.0
 11
11.0
 21
72.822195106696938
 31
0.0
  0
LINE
  5
6543
  8
0
 10
10.0
 20
71.822195106696924
 30
0.0
 11
11.0
 21
71.822195106696924
 31
0.0
  0
LINE
  5
6544
  8
0
 10
10.0
 20
74.822195106696924
 30
0.0
 11
11.0
 21
74.822195106696924
 31
0.0
  0
LINE
  5
6545
  8
0
 10
10.0
 20
70.822195106696938
 30
0.0
 11
11.0
 21
70.822195106696938
 31
0.0
  0
LINE
  5
6546
  8
0
 10
10.0
 20
69.822195106696924
 30
0.0
 11
11.0
 21
69.822195106696924
 31
0.0
  0
LINE
  5
6547
  8
0
 10
10.0
 20
67.822195106696938
 30
0.0
 11
11.0
 21
67.822195106696938
 31
0.0
  0
LINE
  5
6548
  8
0
 10
10.0
 20
78.822195106696938
 30
0.0
 11
13.0
 21
78.822195106696938
 31
0.0
  0
LINE
  5
6549
  8
0
 10
10.0
 20
83.822195106696938
 30
0.0
 11
12.0
 21
83.822195106696938
 31
0.0
  0
LINE
  5
654A
  8
0
 10
10.0
 20
82.822195106696938
 30
0.0
 11
11.0
 21
82.822195106696938
 31
0.0
  0
LINE
  5
654B
  8
0
 10
10.0
 20
81.822195106696938
 30
0.0
 11
11.0
 21
81.822195106696938
 31
0.0
  0
LINE
  5
654C
  8
0
 10
10.0
 20
80.822195106696924
 30
0.0
 11
11.0
 21
80.822195106696924
 31
0.0
  0
LINE
  5
654D
  8
0
 10
10.0
 20
75.822195106696938
 30
0.0
 11
11.0
 21
75.822195106696938
 31
0.0
  0
LINE
  5
654E
  8
0
 10
10.0
 20
76.822195106696924
 30
0.0
 11
11.0
 21
76.822195106696924
 31
0.0
  0
LINE
  5
654F
  8
0
 10
10.0
 20
77.822195106696938
 30
0.0
 11
11.0
 21
77.822195106696938
 31
0.0
  0
LINE
  5
6550
  8
0
 10
10.0
 20
79.822195106696924
 30
0.0
 11
11.0
 21
79.822195106696924
 31
0.0
  0
TEXT
  5
6551
  8
0
 10
14.997089773706341
 20
67.822195106696938
 30
0.0
 40
2.0
  1
44
 72
     2
 11
18.330423107039671
 21
68.822195106696938
 31
0.0
 73
     2
  0
TEXT
  5
6552
  8
0
 10
14.99708977370633
 20
77.822195106696938
 30
0.0
 40
2.0
  1
43
 72
     2
 11
18.330423107039671
 21
78.822195106696938
 31
0.0
 73
     2
  0
LINE
  5
6553
  8
0
 10
10.0
 20
88.822195106696924
 30
0.0
 11
13.0
 21
88.822195106696924
 31
0.0
  0
LINE
  5
6554
  8
0
 10
10.0
 20
92.822195106696924
 30
0.0
 11
11.0
 21
92.822195106696924
 31
0.0
  0
LINE
  5
6555
  8
0
 10
10.0
 20
91.822195106696924
 30
0.0
 11
11.0
 21
91.822195106696924
 31
0.0
  0
LINE
  5
6556
  8
0
 10
10.0
 20
90.822195106696924
 30
0.0
 11
11.0
 21
90.822195106696924
 31
0.0
  0
LINE
  5
6557
  8
0
 10
10.0
 20
89.822195106696924
 30
0.0
 11
11.0
 21
89.822195106696924
 31
0.0
  0
LINE
  5
6558
  8
0
 10
10.0
 20
86.822195106696924
 30
0.0
 11
11.0
 21
86.822195106696924
 31
0.0
  0
LINE
  5
6559
  8
0
 10
10.0
 20
84.822195106696924
 30
0.0
 11
11.0
 21
84.822195106696924
 31
0.0
  0
LINE
  5
655A
  8
0
 10
10.0
 20
85.822195106696924
 30
0.0
 11
11.0
 21
85.822195106696924
 31
0.0
  0
LINE
  5
655B
  8
0
 10
10.0
 20
87.822195106696924
 30
0.0
 11
11.0
 21
87.822195106696924
 31
0.0
  0
LINE
  5
655C
  8
0
 10
10.0
 20
98.822195106696924
 30
0.0
 11
13.0
 21
98.822195106696924
 31
0.0
  0
LINE
  5
655D
  8
0
 10
10.0
 20
99.822195106696924
 30
0.0
 11
11.0
 21
99.822195106696924
 31
0.0
  0
LINE
  5
655E
  8
0
 10
10.0
 20
100.8221951066969
 30
0.0
 11
11.0
 21
100.8221951066969
 31
0.0
  0
LINE
  5
655F
  8
0
 10
10.0
 20
101.8221951066969
 30
0.0
 11
11.0
 21
101.8221951066969
 31
0.0
  0
LINE
  5
6560
  8
0
 10
10.0
 20
97.822195106696924
 30
0.0
 11
11.0
 21
97.822195106696924
 31
0.0
  0
LINE
  5
6561
  8
0
 10
10.0
 20
93.822195106696924
 30
0.0
 11
12.0
 21
93.822195106696924
 31
0.0
  0
LINE
  5
6562
  8
0
 10
10.0
 20
94.822195106696924
 30
0.0
 11
11.0
 21
94.822195106696924
 31
0.0
  0
LINE
  5
6563
  8
0
 10
10.0
 20
96.822195106696924
 30
0.0
 11
11.0
 21
96.822195106696924
 31
0.0
  0
LINE
  5
6564
  8
0
 10
10.0
 20
95.822195106696924
 30
0.0
 11
11.0
 21
95.822195106696924
 31
0.0
  0
TEXT
  5
6565
  8
0
 10
14.99708977370633
 20
87.822195106696924
 30
0.0
 40
2.0
  1
42
 72
     2
 11
18.330423107039671
 21
88.822195106696924
 31
0.0
 73
     2
  0
TEXT
  5
6566
  8
0
 10
15.663756440373
 20
97.822195106696924
 30
0.0
 40
2.0
  1
41
 72
     2
 11
18.330423107039671
 21
98.822195106696924
 31
0.0
 73
     2
  0
LINE
  5
6567
  8
0
 10
10.0
 20
107.8221951066969
 30
0.0
 11
11.0
 21
107.8221951066969
 31
0.0
  0
LINE
  5
6568
  8
0
 10
10.0
 20
106.8221951066969
 30
0.0
 11
11.0
 21
106.8221951066969
 31
0.0
  0
LINE
  5
6569
  8
0
 10
10.0
 20
102.8221951066969
 30
0.0
 11
11.0
 21
102.8221951066969
 31
0.0
  0
LINE
  5
656A
  8
0
 10
10.0
 20
103.8221951066969
 30
0.0
 11
12.0
 21
103.8221951066969
 31
0.0
  0
LINE
  5
656B
  8
0
 10
10.0
 20
105.8221951066969
 30
0.0
 11
11.0
 21
105.8221951066969
 31
0.0
  0
LINE
  5
656C
  8
0
 10
10.0
 20
104.8221951066969
 30
0.0
 11
11.0
 21
104.8221951066969
 31
0.0
  0
LINE
  5
656D
  8
0
 10
288.0
 20
9.8221951066969382
 30
0.0
 11
287.0
 21
9.8221951066969382
 31
0.0
  0
LINE
  5
656E
  8
0
 10
288.0
 20
18.82219510669692
 30
0.0
 11
285.0
 21
18.82219510669692
 31
0.0
  0
LINE
  5
656F
  8
0
 10
288.0
 20
17.822195106696931
 30
0.0
 11
287.0
 21
17.822195106696931
 31
0.0
  0
LINE
  5
6570
  8
0
 10
288.0
 20
16.822195106696931
 30
0.0
 11
287.0
 21
16.822195106696931
 31
0.0
  0
LINE
  5
6571
  8
0
 10
288.0
 20
15.82219510669692
 30
0.0
 11
287.0
 21
15.82219510669692
 31
0.0
  0
LINE
  5
6572
  8
0
 10
288.0
 20
14.82219510669692
 30
0.0
 11
287.0
 21
14.82219510669692
 31
0.0
  0
LINE
  5
6573
  8
0
 10
288.0
 20
13.82219510669692
 30
0.0
 11
286.0
 21
13.82219510669692
 31
0.0
  0
LINE
  5
6574
  8
0
 10
288.0
 20
10.82219510669692
 30
0.0
 11
287.0
 21
10.82219510669692
 31
0.0
  0
LINE
  5
6575
  8
0
 10
288.0
 20
11.82219510669692
 30
0.0
 11
287.0
 21
11.82219510669692
 31
0.0
  0
LINE
  5
6576
  8
0
 10
288.0
 20
12.82219510669692
 30
0.0
 11
287.0
 21
12.82219510669692
 31
0.0
  0
LINE
  5
6577
  8
0
 10
288.0
 20
26.822195106696931
 30
0.0
 11
287.0
 21
26.822195106696931
 31
0.0
  0
LINE
  5
6578
  8
0
 10
288.0
 20
25.822195106696931
 30
0.0
 11
287.0
 21
25.822195106696931
 31
0.0
  0
LINE
  5
6579
  8
0
 10
288.0
 20
24.822195106696931
 30
0.0
 11
287.0
 21
24.822195106696931
 31
0.0
  0
LINE
  5
657A
  8
0
 10
288.0
 20
23.822195106696931
 30
0.0
 11
286.0
 21
23.822195106696931
 31
0.0
  0
LINE
  5
657B
  8
0
 10
288.0
 20
21.82219510669692
 30
0.0
 11
287.0
 21
21.82219510669692
 31
0.0
  0
LINE
  5
657C
  8
0
 10
288.0
 20
22.822195106696942
 30
0.0
 11
287.0
 21
22.822195106696942
 31
0.0
  0
LINE
  5
657D
  8
0
 10
288.0
 20
19.82219510669692
 30
0.0
 11
287.0
 21
19.82219510669692
 31
0.0
  0
LINE
  5
657E
  8
0
 10
288.0
 20
20.82219510669692
 30
0.0
 11
287.0
 21
20.82219510669692
 31
0.0
  0
LINE
  5
657F
  8
0
 10
288.0
 20
28.822195106696942
 30
0.0
 11
285.0
 21
28.822195106696942
 31
0.0
  0
LINE
  5
6580
  8
0
 10
288.0
 20
35.822195106696931
 30
0.0
 11
287.0
 21
35.822195106696931
 31
0.0
  0
LINE
  5
6581
  8
0
 10
288.0
 20
34.822195106696931
 30
0.0
 11
287.0
 21
34.822195106696931
 31
0.0
  0
LINE
  5
6582
  8
0
 10
288.0
 20
32.822195106696938
 30
0.0
 11
287.0
 21
32.822195106696938
 31
0.0
  0
LINE
  5
6583
  8
0
 10
288.0
 20
33.822195106696938
 30
0.0
 11
286.0
 21
33.822195106696938
 31
0.0
  0
LINE
  5
6584
  8
0
 10
288.0
 20
27.822195106696942
 30
0.0
 11
287.0
 21
27.822195106696942
 31
0.0
  0
LINE
  5
6585
  8
0
 10
288.0
 20
30.822195106696931
 30
0.0
 11
287.0
 21
30.822195106696931
 31
0.0
  0
LINE
  5
6586
  8
0
 10
288.0
 20
31.822195106696931
 30
0.0
 11
287.0
 21
31.822195106696931
 31
0.0
  0
LINE
  5
6587
  8
0
 10
288.0
 20
29.822195106696931
 30
0.0
 11
287.0
 21
29.822195106696931
 31
0.0
  0
LINE
  5
6588
  8
0
 10
288.0
 20
38.822195106696938
 30
0.0
 11
285.0
 21
38.822195106696938
 31
0.0
  0
LINE
  5
6589
  8
0
 10
288.0
 20
41.822195106696931
 30
0.0
 11
287.0
 21
41.822195106696931
 31
0.0
  0
LINE
  5
658A
  8
0
 10
288.0
 20
42.822195106696931
 30
0.0
 11
287.0
 21
42.822195106696931
 31
0.0
  0
LINE
  5
658B
  8
0
 10
288.0
 20
44.822195106696917
 30
0.0
 11
287.0
 21
44.822195106696917
 31
0.0
  0
LINE
  5
658C
  8
0
 10
288.0
 20
43.822195106696938
 30
0.0
 11
286.0
 21
43.822195106696938
 31
0.0
  0
LINE
  5
658D
  8
0
 10
288.0
 20
39.822195106696931
 30
0.0
 11
287.0
 21
39.822195106696931
 31
0.0
  0
LINE
  5
658E
  8
0
 10
288.0
 20
40.822195106696938
 30
0.0
 11
287.0
 21
40.822195106696938
 31
0.0
  0
LINE
  5
658F
  8
0
 10
288.0
 20
37.822195106696938
 30
0.0
 11
287.0
 21
37.822195106696938
 31
0.0
  0
LINE
  5
6590
  8
0
 10
288.0
 20
36.822195106696931
 30
0.0
 11
287.0
 21
36.822195106696931
 31
0.0
  0
LINE
  5
6591
  8
0
 10
288.0
 20
48.822195106696938
 30
0.0
 11
285.0
 21
48.822195106696938
 31
0.0
  0
LINE
  5
6592
  8
0
 10
288.0
 20
49.822195106696931
 30
0.0
 11
287.0
 21
49.822195106696931
 31
0.0
  0
LINE
  5
6593
  8
0
 10
288.0
 20
50.822195106696938
 30
0.0
 11
287.0
 21
50.822195106696938
 31
0.0
  0
LINE
  5
6594
  8
0
 10
288.0
 20
51.822195106696931
 30
0.0
 11
287.0
 21
51.822195106696931
 31
0.0
  0
LINE
  5
6595
  8
0
 10
288.0
 20
52.822195106696938
 30
0.0
 11
287.0
 21
52.822195106696938
 31
0.0
  0
LINE
  5
6596
  8
0
 10
288.0
 20
47.822195106696931
 30
0.0
 11
287.0
 21
47.822195106696931
 31
0.0
  0
LINE
  5
6597
  8
0
 10
288.0
 20
46.822195106696931
 30
0.0
 11
287.0
 21
46.822195106696931
 31
0.0
  0
LINE
  5
6598
  8
0
 10
288.0
 20
45.822195106696938
 30
0.0
 11
287.0
 21
45.822195106696938
 31
0.0
  0
LINE
  5
6599
  8
0
 10
288.0
 20
58.82219510669691
 30
0.0
 11
285.0
 21
58.82219510669691
 31
0.0
  0
LINE
  5
659A
  8
0
 10
288.0
 20
59.82219510669691
 30
0.0
 11
287.0
 21
59.82219510669691
 31
0.0
  0
LINE
  5
659B
  8
0
 10
288.0
 20
60.82219510669691
 30
0.0
 11
287.0
 21
60.82219510669691
 31
0.0
  0
LINE
  5
659C
  8
0
 10
288.0
 20
61.82219510669691
 30
0.0
 11
287.0
 21
61.82219510669691
 31
0.0
  0
LINE
  5
659D
  8
0
 10
288.0
 20
53.822195106696938
 30
0.0
 11
286.0
 21
53.822195106696938
 31
0.0
  0
LINE
  5
659E
  8
0
 10
288.0
 20
57.822195106696903
 30
0.0
 11
287.0
 21
57.822195106696903
 31
0.0
  0
LINE
  5
659F
  8
0
 10
288.0
 20
56.82219510669691
 30
0.0
 11
287.0
 21
56.82219510669691
 31
0.0
  0
LINE
  5
65A0
  8
0
 10
288.0
 20
55.822195106696938
 30
0.0
 11
287.0
 21
55.822195106696938
 31
0.0
  0
LINE
  5
65A1
  8
0
 10
288.0
 20
54.822195106696931
 30
0.0
 11
287.0
 21
54.822195106696931
 31
0.0
  0
LINE
  5
65A2
  8
0
 10
288.0
 20
68.82219510669691
 30
0.0
 11
285.0
 21
68.82219510669691
 31
0.0
  0
LINE
  5
65A3
  8
0
 10
288.0
 20
67.822195106696896
 30
0.0
 11
287.0
 21
67.822195106696896
 31
0.0
  0
LINE
  5
65A4
  8
0
 10
288.0
 20
69.82219510669691
 30
0.0
 11
287.0
 21
69.82219510669691
 31
0.0
  0
LINE
  5
65A5
  8
0
 10
288.0
 20
70.82219510669691
 30
0.0
 11
287.0
 21
70.82219510669691
 31
0.0
  0
LINE
  5
65A6
  8
0
 10
288.0
 20
62.822195106696903
 30
0.0
 11
287.0
 21
62.822195106696903
 31
0.0
  0
LINE
  5
65A7
  8
0
 10
288.0
 20
66.82219510669691
 30
0.0
 11
287.0
 21
66.82219510669691
 31
0.0
  0
LINE
  5
65A8
  8
0
 10
288.0
 20
65.82219510669691
 30
0.0
 11
287.0
 21
65.82219510669691
 31
0.0
  0
LINE
  5
65A9
  8
0
 10
288.0
 20
64.82219510669691
 30
0.0
 11
287.0
 21
64.82219510669691
 31
0.0
  0
LINE
  5
65AA
  8
0
 10
288.0
 20
63.82219510669691
 30
0.0
 11
286.0
 21
63.82219510669691
 31
0.0
  0
LINE
  5
65AB
  8
0
 10
288.0
 20
78.82219510669691
 30
0.0
 11
285.0
 21
78.82219510669691
 31
0.0
  0
LINE
  5
65AC
  8
0
 10
288.0
 20
79.82219510669691
 30
0.0
 11
287.0
 21
79.82219510669691
 31
0.0
  0
LINE
  5
65AD
  8
0
 10
288.0
 20
77.822195106696896
 30
0.0
 11
287.0
 21
77.822195106696896
 31
0.0
  0
LINE
  5
65AE
  8
0
 10
288.0
 20
76.82219510669691
 30
0.0
 11
287.0
 21
76.82219510669691
 31
0.0
  0
LINE
  5
65AF
  8
0
 10
288.0
 20
75.82219510669691
 30
0.0
 11
287.0
 21
75.82219510669691
 31
0.0
  0
LINE
  5
65B0
  8
0
 10
288.0
 20
74.82219510669691
 30
0.0
 11
287.0
 21
74.82219510669691
 31
0.0
  0
LINE
  5
65B1
  8
0
 10
288.0
 20
71.82219510669691
 30
0.0
 11
287.0
 21
71.82219510669691
 31
0.0
  0
LINE
  5
65B2
  8
0
 10
288.0
 20
72.822195106696896
 30
0.0
 11
287.0
 21
72.822195106696896
 31
0.0
  0
LINE
  5
65B3
  8
0
 10
288.0
 20
73.82219510669691
 30
0.0
 11
286.0
 21
73.82219510669691
 31
0.0
  0
LINE
  5
65B4
  8
0
 10
288.0
 20
87.822195106696896
 30
0.0
 11
287.0
 21
87.822195106696896
 31
0.0
  0
LINE
  5
65B5
  8
0
 10
288.0
 20
85.82219510669691
 30
0.0
 11
287.0
 21
85.82219510669691
 31
0.0
  0
LINE
  5
65B6
  8
0
 10
288.0
 20
84.822195106696924
 30
0.0
 11
287.0
 21
84.822195106696924
 31
0.0
  0
LINE
  5
65B7
  8
0
 10
288.0
 20
86.82219510669691
 30
0.0
 11
287.0
 21
86.82219510669691
 31
0.0
  0
LINE
  5
65B8
  8
0
 10
288.0
 20
80.82219510669691
 30
0.0
 11
287.0
 21
80.82219510669691
 31
0.0
  0
LINE
  5
65B9
  8
0
 10
288.0
 20
81.82219510669691
 30
0.0
 11
287.0
 21
81.82219510669691
 31
0.0
  0
LINE
  5
65BA
  8
0
 10
288.0
 20
82.822195106696896
 30
0.0
 11
287.0
 21
82.822195106696896
 31
0.0
  0
LINE
  5
65BB
  8
0
 10
288.0
 20
83.822195106696896
 30
0.0
 11
286.0
 21
83.822195106696896
 31
0.0
  0
LINE
  5
65BC
  8
0
 10
288.0
 20
88.822195106696896
 30
0.0
 11
285.0
 21
88.822195106696896
 31
0.0
  0
LINE
  5
65BD
  8
0
 10
288.0
 20
95.822195106696924
 30
0.0
 11
287.0
 21
95.822195106696924
 31
0.0
  0
LINE
  5
65BE
  8
0
 10
288.0
 20
96.822195106696924
 30
0.0
 11
287.0
 21
96.822195106696924
 31
0.0
  0
LINE
  5
65BF
  8
0
 10
288.0
 20
94.822195106696924
 30
0.0
 11
287.0
 21
94.822195106696924
 31
0.0
  0
LINE
  5
65C0
  8
0
 10
288.0
 20
93.822195106696867
 30
0.0
 11
286.0
 21
93.822195106696867
 31
0.0
  0
LINE
  5
65C1
  8
0
 10
288.0
 20
89.822195106696924
 30
0.0
 11
287.0
 21
89.822195106696924
 31
0.0
  0
LINE
  5
65C2
  8
0
 10
288.0
 20
90.822195106696924
 30
0.0
 11
287.0
 21
90.822195106696924
 31
0.0
  0
LINE
  5
65C3
  8
0
 10
288.0
 20
91.822195106696924
 30
0.0
 11
287.0
 21
91.822195106696924
 31
0.0
  0
LINE
  5
65C4
  8
0
 10
288.0
 20
92.822195106696867
 30
0.0
 11
287.0
 21
92.822195106696867
 31
0.0
  0
LINE
  5
65C5
  8
0
 10
288.0
 20
98.822195106696924
 30
0.0
 11
285.0
 21
98.822195106696924
 31
0.0
  0
LINE
  5
65C6
  8
0
 10
288.0
 20
104.8221951066969
 30
0.0
 11
287.0
 21
104.8221951066969
 31
0.0
  0
LINE
  5
65C7
  8
0
 10
288.0
 20
105.8221951066969
 30
0.0
 11
287.0
 21
105.8221951066969
 31
0.0
  0
LINE
  5
65C8
  8
0
 10
288.0
 20
103.8221951066969
 30
0.0
 11
286.0
 21
103.8221951066969
 31
0.0
  0
LINE
  5
65C9
  8
0
 10
288.0
 20
102.8221951066969
 30
0.0
 11
287.0
 21
102.8221951066969
 31
0.0
  0
LINE
  5
65CA
  8
0
 10
288.0
 20
97.822195106696867
 30
0.0
 11
287.0
 21
97.822195106696867
 31
0.0
  0
LINE
  5
65CB
  8
0
 10
288.0
 20
101.8221951066969
 30
0.0
 11
287.0
 21
101.8221951066969
 31
0.0
  0
LINE
  5
65CC
  8
0
 10
288.0
 20
100.8221951066969
 30
0.0
 11
287.0
 21
100.8221951066969
 31
0.0
  0
LINE
  5
65CD
  8
0
 10
288.0
 20
99.822195106696924
 30
0.0
 11
287.0
 21
99.822195106696924
 31
0.0
  0
LINE
  5
65CE
  8
0
 10
288.0
 20
108.8221951066969
 30
0.0
 11
285.0
 21
108.8221951066969
 31
0.0
  0
LINE
  5
65CF
  8
0
 10
288.0
 20
106.8221951066969
 30
0.0
 11
287.0
 21
106.8221951066969
 31
0.0
  0
LINE
  5
65D0
  8
0
 10
288.0
 20
107.8221951066969
 30
0.0
 11
287.0
 21
107.8221951066969
 31
0.0
  0
LINE
  5
65D1
  8
0
 10
288.0
 20
112.8221951066969
 30
0.0
 11
287.0
 21
112.8221951066969
 31
0.0
  0
LINE
  5
65D2
  8
0
 10
288.0
 20
111.8221951066969
 30
0.0
 11
287.0
 21
111.8221951066969
 31
0.0
  0
LINE
  5
65D3
  8
0
 10
288.0
 20
110.8221951066969
 30
0.0
 11
287.0
 21
110.8221951066969
 31
0.0
  0
LINE
  5
65D4
  8
0
 10
288.0
 20
113.8221951066969
 30
0.0
 11
286.0
 21
113.8221951066969
 31
0.0
  0
LINE
  5
65D5
  8
0
 10
288.0
 20
109.8221951066969
 30
0.0
 11
287.0
 21
109.8221951066969
 31
0.0
  0
LINE
  5
65D6
  8
0
 10
288.0
 20
118.8221951066969
 30
0.0
 11
285.0
 21
118.8221951066969
 31
0.0
  0
LINE
  5
65D7
  8
0
 10
288.0
 20
120.8221951066969
 30
0.0
 11
287.0
 21
120.8221951066969
 31
0.0
  0
LINE
  5
65D8
  8
0
 10
288.0
 20
119.8221951066969
 30
0.0
 11
287.0
 21
119.8221951066969
 31
0.0
  0
LINE
  5
65D9
  8
0
 10
288.0
 20
122.8221951066969
 30
0.0
 11
287.0
 21
122.8221951066969
 31
0.0
  0
LINE
  5
65DA
  8
0
 10
288.0
 20
121.8221951066969
 30
0.0
 11
287.0
 21
121.8221951066969
 31
0.0
  0
LINE
  5
65DB
  8
0
 10
288.0
 20
114.8221951066969
 30
0.0
 11
287.0
 21
114.8221951066969
 31
0.0
  0
LINE
  5
65DC
  8
0
 10
288.0
 20
115.8221951066969
 30
0.0
 11
287.0
 21
115.8221951066969
 31
0.0
  0
LINE
  5
65DD
  8
0
 10
288.0
 20
116.8221951066969
 30
0.0
 11
287.0
 21
116.8221951066969
 31
0.0
  0
LINE
  5
65DE
  8
0
 10
288.0
 20
117.8221951066969
 30
0.0
 11
287.0
 21
117.8221951066969
 31
0.0
  0
LINE
  5
65DF
  8
0
 10
288.0
 20
128.82219510669691
 30
0.0
 11
285.0
 21
128.82219510669691
 31
0.0
  0
LINE
  5
65E0
  8
0
 10
288.0
 20
129.82219510669691
 30
0.0
 11
287.0
 21
129.82219510669691
 31
0.0
  0
LINE
  5
65E1
  8
0
 10
288.0
 20
131.82219510669691
 30
0.0
 11
287.0
 21
131.82219510669691
 31
0.0
  0
LINE
  5
65E2
  8
0
 10
288.0
 20
130.82219510669691
 30
0.0
 11
287.0
 21
130.82219510669691
 31
0.0
  0
LINE
  5
65E3
  8
0
 10
288.0
 20
123.8221951066969
 30
0.0
 11
286.0
 21
123.8221951066969
 31
0.0
  0
LINE
  5
65E4
  8
0
 10
288.0
 20
124.8221951066969
 30
0.0
 11
287.0
 21
124.8221951066969
 31
0.0
  0
LINE
  5
65E5
  8
0
 10
288.0
 20
125.8221951066969
 30
0.0
 11
287.0
 21
125.8221951066969
 31
0.0
  0
LINE
  5
65E6
  8
0
 10
288.0
 20
126.8221951066969
 30
0.0
 11
287.0
 21
126.8221951066969
 31
0.0
  0
LINE
  5
65E7
  8
0
 10
288.0
 20
127.8221951066969
 30
0.0
 11
287.0
 21
127.8221951066969
 31
0.0
  0
LINE
  5
65E8
  8
0
 10
288.0
 20
138.82219510669691
 30
0.0
 11
285.0
 21
138.82219510669691
 31
0.0
  0
LINE
  5
65E9
  8
0
 10
288.0
 20
133.82219510669691
 30
0.0
 11
286.0
 21
133.82219510669691
 31
0.0
  0
LINE
  5
65EA
  8
0
 10
288.0
 20
132.82219510669691
 30
0.0
 11
287.0
 21
132.82219510669691
 31
0.0
  0
LINE
  5
65EB
  8
0
 10
288.0
 20
134.82219510669691
 30
0.0
 11
287.0
 21
134.82219510669691
 31
0.0
  0
LINE
  5
65EC
  8
0
 10
288.0
 20
135.82219510669691
 30
0.0
 11
287.0
 21
135.82219510669691
 31
0.0
  0
LINE
  5
65ED
  8
0
 10
288.0
 20
136.82219510669691
 30
0.0
 11
287.0
 21
136.82219510669691
 31
0.0
  0
LINE
  5
65EE
  8
0
 10
288.0
 20
137.82219510669691
 30
0.0
 11
287.0
 21
137.82219510669691
 31
0.0
  0
LINE
  5
65EF
  8
0
 10
288.0
 20
140.82219510669691
 30
0.0
 11
287.0
 21
140.82219510669691
 31
0.0
  0
LINE
  5
65F0
  8
0
 10
288.0
 20
139.82219510669691
 30
0.0
 11
287.0
 21
139.82219510669691
 31
0.0
  0
LINE
  5
65F1
  8
0
 10
288.0
 20
148.82219510669691
 30
0.0
 11
285.0
 21
148.82219510669691
 31
0.0
  0
LINE
  5
65F2
  8
0
 10
288.0
 20
145.82219510669691
 30
0.0
 11
287.0
 21
145.82219510669691
 31
0.0
  0
LINE
  5
65F3
  8
0
 10
288.0
 20
146.82219510669691
 30
0.0
 11
287.0
 21
146.82219510669691
 31
0.0
  0
LINE
  5
65F4
  8
0
 10
288.0
 20
147.82219510669691
 30
0.0
 11
287.0
 21
147.82219510669691
 31
0.0
  0
LINE
  5
65F5
  8
0
 10
288.0
 20
143.82219510669691
 30
0.0
 11
286.0
 21
143.82219510669691
 31
0.0
  0
LINE
  5
65F6
  8
0
 10
288.0
 20
144.82219510669691
 30
0.0
 11
287.0
 21
144.82219510669691
 31
0.0
  0
LINE
  5
65F7
  8
0
 10
288.0
 20
142.82219510669691
 30
0.0
 11
287.0
 21
142.82219510669691
 31
0.0
  0
LINE
  5
65F8
  8
0
 10
288.0
 20
141.82219510669691
 30
0.0
 11
287.0
 21
141.82219510669691
 31
0.0
  0
LINE
  5
65F9
  8
0
 10
288.0
 20
154.82219510669691
 30
0.0
 11
287.0
 21
154.82219510669691
 31
0.0
  0
LINE
  5
65FA
  8
0
 10
288.0
 20
155.8221951066968
 30
0.0
 11
287.0
 21
155.8221951066968
 31
0.0
  0
LINE
  5
65FB
  8
0
 10
288.0
 20
156.82219510669691
 30
0.0
 11
287.0
 21
156.82219510669691
 31
0.0
  0
LINE
  5
65FC
  8
0
 10
288.0
 20
157.82219510669691
 30
0.0
 11
287.0
 21
157.82219510669691
 31
0.0
  0
LINE
  5
65FD
  8
0
 10
288.0
 20
153.82219510669691
 30
0.0
 11
286.0
 21
153.82219510669691
 31
0.0
  0
LINE
  5
65FE
  8
0
 10
288.0
 20
152.82219510669691
 30
0.0
 11
287.0
 21
152.82219510669691
 31
0.0
  0
LINE
  5
65FF
  8
0
 10
288.0
 20
151.82219510669691
 30
0.0
 11
287.0
 21
151.82219510669691
 31
0.0
  0
LINE
  5
6600
  8
0
 10
288.0
 20
150.82219510669691
 30
0.0
 11
287.0
 21
150.82219510669691
 31
0.0
  0
LINE
  5
6601
  8
0
 10
288.0
 20
149.82219510669691
 30
0.0
 11
287.0
 21
149.82219510669691
 31
0.0
  0
LINE
  5
6602
  8
0
 10
288.0
 20
158.82219510669691
 30
0.0
 11
285.0
 21
158.82219510669691
 31
0.0
  0
LINE
  5
6603
  8
0
 10
288.0
 20
163.82219510669691
 30
0.0
 11
286.0
 21
163.82219510669691
 31
0.0
  0
LINE
  5
6604
  8
0
 10
288.0
 20
164.82219510669691
 30
0.0
 11
287.0
 21
164.82219510669691
 31
0.0
  0
LINE
  5
6605
  8
0
 10
288.0
 20
165.82219510669691
 30
0.0
 11
287.0
 21
165.82219510669691
 31
0.0
  0
LINE
  5
6606
  8
0
 10
288.0
 20
166.82219510669691
 30
0.0
 11
287.0
 21
166.82219510669691
 31
0.0
  0
LINE
  5
6607
  8
0
 10
288.0
 20
161.82219510669691
 30
0.0
 11
287.0
 21
161.82219510669691
 31
0.0
  0
LINE
  5
6608
  8
0
 10
288.0
 20
160.82219510669691
 30
0.0
 11
287.0
 21
160.82219510669691
 31
0.0
  0
LINE
  5
6609
  8
0
 10
288.0
 20
159.82219510669691
 30
0.0
 11
287.0
 21
159.82219510669691
 31
0.0
  0
LINE
  5
660A
  8
0
 10
288.0
 20
162.82219510669691
 30
0.0
 11
287.0
 21
162.82219510669691
 31
0.0
  0
LINE
  5
660B
  8
0
 10
288.0
 20
168.82219510669691
 30
0.0
 11
285.0
 21
168.82219510669691
 31
0.0
  0
LINE
  5
660C
  8
0
 10
288.0
 20
173.8221951066968
 30
0.0
 11
286.0
 21
173.8221951066968
 31
0.0
  0
LINE
  5
660D
  8
0
 10
288.0
 20
172.8221951066968
 30
0.0
 11
287.0
 21
172.8221951066968
 31
0.0
  0
LINE
  5
660E
  8
0
 10
288.0
 20
171.8221951066968
 30
0.0
 11
287.0
 21
171.8221951066968
 31
0.0
  0
LINE
  5
660F
  8
0
 10
288.0
 20
174.8221951066968
 30
0.0
 11
287.0
 21
174.8221951066968
 31
0.0
  0
LINE
  5
6610
  8
0
 10
288.0
 20
170.82219510669691
 30
0.0
 11
287.0
 21
170.82219510669691
 31
0.0
  0
LINE
  5
6611
  8
0
 10
288.0
 20
169.82219510669691
 30
0.0
 11
287.0
 21
169.82219510669691
 31
0.0
  0
LINE
  5
6612
  8
0
 10
288.0
 20
167.82219510669691
 30
0.0
 11
287.0
 21
167.82219510669691
 31
0.0
  0
LINE
  5
6613
  8
0
 10
288.0
 20
178.8221951066968
 30
0.0
 11
285.0
 21
178.8221951066968
 31
0.0
  0
LINE
  5
6614
  8
0
 10
288.0
 20
183.8221951066968
 30
0.0
 11
286.0
 21
183.8221951066968
 31
0.0
  0
LINE
  5
6615
  8
0
 10
288.0
 20
182.8221951066968
 30
0.0
 11
287.0
 21
182.8221951066968
 31
0.0
  0
LINE
  5
6616
  8
0
 10
288.0
 20
181.8221951066968
 30
0.0
 11
287.0
 21
181.8221951066968
 31
0.0
  0
LINE
  5
6617
  8
0
 10
288.0
 20
180.8221951066968
 30
0.0
 11
287.0
 21
180.8221951066968
 31
0.0
  0
LINE
  5
6618
  8
0
 10
288.0
 20
175.8221951066968
 30
0.0
 11
287.0
 21
175.8221951066968
 31
0.0
  0
LINE
  5
6619
  8
0
 10
288.0
 20
176.8221951066968
 30
0.0
 11
287.0
 21
176.8221951066968
 31
0.0
  0
LINE
  5
661A
  8
0
 10
288.0
 20
177.8221951066968
 30
0.0
 11
287.0
 21
177.8221951066968
 31
0.0
  0
LINE
  5
661B
  8
0
 10
288.0
 20
179.8221951066968
 30
0.0
 11
287.0
 21
179.8221951066968
 31
0.0
  0
LINE
  5
661C
  8
0
 10
288.0
 20
188.8221951066968
 30
0.0
 11
285.0
 21
188.8221951066968
 31
0.0
  0
LINE
  5
661D
  8
0
 10
288.0
 20
192.8221951066968
 30
0.0
 11
287.0
 21
192.8221951066968
 31
0.0
  0
LINE
  5
661E
  8
0
 10
288.0
 20
191.8221951066968
 30
0.0
 11
287.0
 21
191.8221951066968
 31
0.0
  0
LINE
  5
661F
  8
0
 10
288.0
 20
190.8221951066968
 30
0.0
 11
287.0
 21
190.8221951066968
 31
0.0
  0
LINE
  5
6620
  8
0
 10
288.0
 20
189.8221951066968
 30
0.0
 11
287.0
 21
189.8221951066968
 31
0.0
  0
LINE
  5
6621
  8
0
 10
288.0
 20
186.8221951066968
 30
0.0
 11
287.0
 21
186.8221951066968
 31
0.0
  0
LINE
  5
6622
  8
0
 10
288.0
 20
184.8221951066968
 30
0.0
 11
287.0
 21
184.8221951066968
 31
0.0
  0
LINE
  5
6623
  8
0
 10
288.0
 20
185.8221951066968
 30
0.0
 11
287.0
 21
185.8221951066968
 31
0.0
  0
LINE
  5
6624
  8
0
 10
288.0
 20
187.8221951066968
 30
0.0
 11
287.0
 21
187.8221951066968
 31
0.0
  0
LINE
  5
6625
  8
0
 10
288.0
 20
198.8221951066968
 30
0.0
 11
285.0
 21
198.8221951066968
 31
0.0
  0
LINE
  5
6626
  8
0
 10
288.0
 20
199.8221951066968
 30
0.0
 11
287.0
 21
199.8221951066968
 31
0.0
  0
LINE
  5
6627
  8
0
 10
288.0
 20
200.8221951066968
 30
0.0
 11
287.0
 21
200.8221951066968
 31
0.0
  0
LINE
  5
6628
  8
0
 10
288.0
 20
201.8221951066968
 30
0.0
 11
287.0
 21
201.8221951066968
 31
0.0
  0
LINE
  5
6629
  8
0
 10
288.0
 20
197.8221951066968
 30
0.0
 11
287.0
 21
197.8221951066968
 31
0.0
  0
LINE
  5
662A
  8
0
 10
288.0
 20
193.8221951066968
 30
0.0
 11
286.0
 21
193.8221951066968
 31
0.0
  0
LINE
  5
662B
  8
0
 10
288.0
 20
194.82219510669691
 30
0.0
 11
287.0
 21
194.82219510669691
 31
0.0
  0
LINE
  5
662C
  8
0
 10
288.0
 20
196.8221951066968
 30
0.0
 11
287.0
 21
196.8221951066968
 31
0.0
  0
LINE
  5
662D
  8
0
 10
288.0
 20
195.8221951066968
 30
0.0
 11
287.0
 21
195.8221951066968
 31
0.0
  0
LINE
  5
662E
  8
0
 10
288.0
 20
208.82219510669691
 30
0.0
 11
285.0
 21
208.82219510669691
 31
0.0
  0
LINE
  5
662F
  8
0
 10
288.0
 20
207.8221951066968
 30
0.0
 11
287.0
 21
207.8221951066968
 31
0.0
  0
LINE
  5
6630
  8
0
 10
288.0
 20
206.82219510669691
 30
0.0
 11
287.0
 21
206.82219510669691
 31
0.0
  0
LINE
  5
6631
  8
0
 10
288.0
 20
202.82219510669691
 30
0.0
 11
287.0
 21
202.82219510669691
 31
0.0
  0
LINE
  5
6632
  8
0
 10
288.0
 20
203.8221951066968
 30
0.0
 11
286.0
 21
203.8221951066968
 31
0.0
  0
LINE
  5
6633
  8
0
 10
288.0
 20
205.8221951066968
 30
0.0
 11
287.0
 21
205.8221951066968
 31
0.0
  0
LINE
  5
6634
  8
0
 10
288.0
 20
204.82219510669691
 30
0.0
 11
287.0
 21
204.82219510669691
 31
0.0
  0
TEXT
  5
6682
  8
0
 10
227.35040231287661
 20
4.3471468776294238
 30
0.0
 40
3.0
  1
地すべり調査用ボーリング柱状図様式
 11
227.35040231287661
 21
5.8471468776294238
 31
0.0
 73
     2
  0
VIEWPORT
  5
6637
 67
     1
  8
0
 10
63.379714567022802
 20
183.74492899459989
 30
0.0
 40
312.00160463385379
 41
240.8901277942291
 68
     1
 69
     1
1001
ACAD
1000
MVIEW
1002
{
1070
    16
1010
0.0
1020
0.0
1030
0.0
1010
0.0
1020
0.0
1030
1.0
1040
0.0
1040
240.8901277942291
1040
63.379714567022802
1040
183.74492899459989
1040
50.0
1040
0.0
1040
0.0
1070
     0
1070
   100
1070
     1
1070
     1
1070
     0
1070
     0
1070
     0
1070
     0
1040
0.0
1040
0.0
1040
0.0
1040
10.0
1040
10.0
1040
10.0
1040
10.0
1070
     0
1002
{
1002
}
1002
}
  0
ENDSEC
  0
EOF
