  0
SECTION
  2
HEADER
  9
$ACADVER
  1
AC1009
  9
$INSBASE
 10
0.0
 20
0.0
 30
0.0
  9
$EXTMIN
 10
0.0
 20
0.0
 30
0.0
  9
$EXTMAX
 10
297.0
 20
575.32064812713588
 30
0.0
  9
$LIMMIN
 10
0.0
 20
0.0
  9
$LIMMAX
 10
297.0
 20
420.0
  9
$ORTHOMODE
 70
     0
  9
$REGENMODE
 70
     1
  9
$FILLMODE
 70
     1
  9
$QTEXTMODE
 70
     0
  9
$MIRRTEXT
 70
     1
  9
$DRAGMODE
 70
     2
  9
$LTSCALE
 40
1.0
  9
$OSMODE
 70
     1
  9
$ATTMODE
 70
     1
  9
$TEXTSIZE
 40
4.0
  9
$TRACEWID
 40
1.0
  9
$TEXTSTYLE
  7
STANDARD
  9
$CLAYER
  8
0
  9
$CELTYPE
  6
BYLAYER
  9
$CECOLOR
 62
   256
  9
$DIMSCALE
 40
1.0
  9
$DIMASZ
 40
2.5
  9
$DIMEXO
 40
0.625
  9
$DIMDLI
 40
3.75
  9
$DIMRND
 40
0.0
  9
$DIMDLE
 40
0.0
  9
$DIMEXE
 40
1.25
  9
$DIMTP
 40
0.0
  9
$DIMTM
 40
0.0
  9
$DIMTXT
 40
2.5
  9
$DIMCEN
 40
2.5
  9
$DIMTSZ
 40
0.0
  9
$DIMTOL
 70
     0
  9
$DIMLIM
 70
     0
  9
$DIMTIH
 70
     0
  9
$DIMTOH
 70
     0
  9
$DIMSE1
 70
     0
  9
$DIMSE2
 70
     0
  9
$DIMTAD
 70
     1
  9
$DIMZIN
 70
     0
  9
$DIMBLK
  1

  9
$DIMASO
 70
     1
  9
$DIMSHO
 70
     1
  9
$DIMPOST
  1

  9
$DIMAPOST
  1

  9
$DIMALT
 70
     0
  9
$DIMALTD
 70
     3
  9
$DIMALTF
 40
0.03937007874016
  9
$DIMLFAC
 40
1.0
  9
$DIMTOFL
 70
     1
  9
$DIMTVP
 40
0.0
  9
$DIMTIX
 70
     0
  9
$DIMSOXD
 70
     0
  9
$DIMSAH
 70
     0
  9
$DIMBLK1
  1

  9
$DIMBLK2
  1

  9
$DIMSTYLE
  2
ISO-25
  9
$DIMCLRD
 70
     0
  9
$DIMCLRE
 70
     0
  9
$DIMCLRT
 70
     0
  9
$DIMTFAC
 40
1.0
  9
$DIMGAP
 40
0.625
  9
$LUNITS
 70
     2
  9
$LUPREC
 70
     4
  9
$SKETCHINC
 40
1.0
  9
$FILLETRAD
 40
0.0
  9
$AUNITS
 70
     0
  9
$AUPREC
 70
     0
  9
$MENU
  1
.
  9
$ELEVATION
 40
0.0
  9
$PELEVATION
 40
0.0
  9
$THICKNESS
 40
0.0
  9
$LIMCHECK
 70
     0
  9
$BLIPMODE
 70
     0
  9
$CHAMFERA
 40
0.0
  9
$CHAMFERB
 40
0.0
  9
$SKPOLY
 70
     0
  9
$TDCREATE
 40
2452194.4037277768
  9
$TDUPDATE
 40
2452306.433557291
  9
$TDINDWG
 40
1.6656131944000001
  9
$TDUSRTIMER
 40
1.6656131944000001
  9
$USRTIMER
 70
     1
  9
$ANGBASE
 50
0.0
  9
$ANGDIR
 70
     0
  9
$PDMODE
 70
     3
  9
$PDSIZE
 40
0.0
  9
$PLINEWID
 40
0.0
  9
$COORDS
 70
     0
  9
$SPLFRAME
 70
     0
  9
$SPLINETYPE
 70
     6
  9
$SPLINESEGS
 70
     8
  9
$ATTDIA
 70
     0
  9
$ATTREQ
 70
     1
  9
$HANDLING
 70
-16383
  9
$HANDSEED
  5
6B3E
  9
$SURFTAB1
 70
     6
  9
$SURFTAB2
 70
     6
  9
$SURFTYPE
 70
     6
  9
$SURFU
 70
     6
  9
$SURFV
 70
     6
  9
$UCSNAME
  2

  9
$UCSORG
 10
0.0
 20
0.0
 30
0.0
  9
$UCSXDIR
 10
1.0
 20
0.0
 30
0.0
  9
$UCSYDIR
 10
0.0
 20
1.0
 30
0.0
  9
$PUCSNAME
  2

  9
$PUCSORG
 10
0.0
 20
0.0
 30
0.0
  9
$PUCSXDIR
 10
1.0
 20
0.0
 30
0.0
  9
$PUCSYDIR
 10
0.0
 20
1.0
 30
0.0
  9
$USERI1
 70
     1
  9
$USERI2
 70
     0
  9
$USERI3
 70
     0
  9
$USERI4
 70
     0
  9
$USERI5
 70
     0
  9
$USERR1
 40
1.0
  9
$USERR2
 40
1.0
  9
$USERR3
 40
0.0
  9
$USERR4
 40
0.0
  9
$USERR5
 40
0.0
  9
$WORLDVIEW
 70
     1
  9
$SHADEDGE
 70
     3
  9
$SHADEDIF
 70
    70
  9
$TILEMODE
 70
     1
  9
$MAXACTVP
 70
    48
  9
$PLIMCHECK
 70
     0
  9
$PEXTMIN
 10
0.1778145603150278
 20
-0.3103504260435557
 30
0.0
  9
$PEXTMAX
 10
198.1326846757197
 20
283.17468584801992
 30
0.0
  9
$PLIMMIN
 10
-5.8737497329711923
 20
-5.8737478256225568
  9
$PLIMMAX
 10
204.18424892425529
 20
291.05224704742432
  9
$UNITMODE
 70
     0
  9
$VISRETAIN
 70
     1
  9
$PLINEGEN
 70
     0
  9
$PSLTSCALE
 70
     1
  0
ENDSEC
  0
SECTION
  2
TABLES
  0
TABLE
  2
VPORT
 70
     3
  0
VPORT
  2
*ACTIVE
 70
     0
 10
0.0
 20
0.0
 11
1.0
 21
1.0
 12
281.04501662046232
 22
287.66032808238162
 13
0.0
 23
0.0
 14
10.0
 24
10.0
 15
10.0
 25
10.0
 16
0.0
 26
0.0
 36
1.0
 17
0.0
 27
0.0
 37
0.0
 40
581.91097221241228
 41
1.750922509225092
 42
50.0
 43
0.0
 44
0.0
 50
0.0
 51
0.0
 71
     0
 72
   100
 73
     1
 74
     3
 75
     0
 76
     0
 77
     0
 78
     0
  0
ENDTAB
  0
TABLE
  2
LTYPE
 70
     1
  0
LTYPE
  2
CONTINUOUS
 70
     0
  3
Solid line
 72
    65
 73
     0
 40
0.0
  0
ENDTAB
  0
TABLE
  2
LAYER
 70
     1
  0
LAYER
  2
0
 70
     0
 62
     7
  6
CONTINUOUS
  0
ENDTAB
  0
TABLE
  2
STYLE
 70
     2
  0
STYLE
  2
STANDARD
 70
     0
 40
0.0
 41
1.0
 50
0.0
 71
     0
 42
4.0
  3
txt.shx
  4
bigfont.shx
  0
STYLE
  2
STANDATDT
 70
     4
 40
0.0
 41
1.0
 50
0.0
 71
     0
 42
4.0
  3
txt.shx
  4
bigfont.shx
  0
ENDTAB
  0
TABLE
  2
VIEW
 70
     0
  0
ENDTAB
  0
TABLE
  2
UCS
 70
     0
  0
ENDTAB
  0
TABLE
  2
APPID
 70
     1
  0
APPID
  2
ACAD
 70
     0
  0
ENDTAB
  0
TABLE
  2
DIMSTYLE
 70
     2
  0
DIMSTYLE
  2
ISO-25
 70
     0
  3

  4

  5

  6

  7

 40
1.0
 41
2.5
 42
0.625
 43
3.75
 44
1.25
 45
0.0
 46
0.0
 47
0.0
 48
0.0
140
2.5
141
2.5
142
0.0
143
0.03937007874016
144
1.0
145
0.0
146
1.0
147
0.625
 71
     0
 72
     0
 73
     0
 74
     0
 75
     0
 76
     0
 77
     1
 78
     8
170
     0
171
     3
172
     1
173
     0
174
     0
175
     0
176
     0
177
     0
178
     0
  0
DIMSTYLE
  2
STANDARD
 70
     0
  3

  4

  5

  6

  7

 40
1.0
 41
0.18
 42
0.0625
 43
0.38
 44
0.18
 45
0.0
 46
0.0
 47
0.0
 48
0.0
140
0.18
141
0.09
142
0.0
143
25.399999999999999
144
1.0
145
0.0
146
1.0
147
0.09
 71
     0
 72
     0
 73
     1
 74
     1
 75
     0
 76
     0
 77
     0
 78
     0
170
     0
171
     2
172
     0
173
     0
174
     0
175
     0
176
     0
177
     0
178
     0
  0
ENDTAB
  0
ENDSEC
  0
SECTION
  2
BLOCKS
  0
BLOCK
  8
0
  2
$MODEL_SPACE
 70
     0
 10
0.0
 20
0.0
 30
0.0
  3
$MODEL_SPACE
  1

  0
ENDBLK
  5
5E78
  8
0
  0
BLOCK
 67
     1
  8
0
  2
$PAPER_SPACE
 70
     0
 10
0.0
 20
0.0
 30
0.0
  3
$PAPER_SPACE
  1

  0
ENDBLK
  5
5E74
 67
     1
  8
0
  0
BLOCK
  8
0
  2
*X0
 70
     1
 10
0.0
 20
0.0
 30
0.0
  3
*X0
  1

  0
LINE
  5
5E88
  8
0
 62
     0
 10
20.514953819341478
 20
50.102174034792732
 30
0.0
 11
20.514953819341478
 21
50.102174034792732
 31
0.0
  0
LINE
  5
5E89
  8
0
 62
     0
 10
20.073000292564021
 20
50.507149828845883
 30
0.0
 11
20.073000292564021
 21
50.507149828845883
 31
0.0
  0
LINE
  5
5E8A
  8
0
 62
     0
 10
19.979366070789151
 20
50.592949785213072
 30
0.0
 11
19.979366070789151
 21
50.592949785213072
 31
0.0
  0
LINE
  5
5E8B
  8
0
 62
     0
 10
19.473741273204752
 20
51.056269549595882
 30
0.0
 11
19.473741273204752
 21
51.056269549595882
 31
0.0
  0
LINE
  5
5E8C
  8
0
 62
     0
 10
19.031787746427302
 20
51.461245343649011
 30
0.0
 11
19.031787746427302
 21
51.461245343649011
 31
0.0
  0
LINE
  5
5E8D
  8
0
 62
     0
 10
18.938153524652421
 20
51.547045300016201
 30
0.0
 11
18.938153524652421
 21
51.547045300016201
 31
0.0
  0
LINE
  5
5E8E
  8
0
 62
     0
 10
21.60011319750862
 20
50.953008475360321
 30
0.0
 11
21.60011319750862
 21
50.953008475360321
 31
0.0
  0
LINE
  5
5E8F
  8
0
 62
     0
 10
21.506478975733721
 20
51.038808431727503
 30
0.0
 11
21.506478975733721
 21
51.038808431727503
 31
0.0
  0
LINE
  5
5E90
  8
0
 62
     0
 10
21.00085417814935
 20
51.502128196110327
 30
0.0
 11
21.00085417814935
 21
51.502128196110327
 31
0.0
  0
LINE
  5
5E91
  8
0
 62
     0
 10
20.558900651371879
 20
51.907103990163449
 30
0.0
 11
20.558900651371879
 21
51.907103990163449
 31
0.0
  0
LINE
  5
5E92
  8
0
 62
     0
 10
20.465266429597008
 20
51.992903946530639
 30
0.0
 11
20.465266429597008
 21
51.992903946530639
 31
0.0
  0
LINE
  5
5E93
  8
0
 62
     0
 10
19.95964163201262
 20
52.456223710913463
 30
0.0
 11
19.95964163201262
 21
52.456223710913463
 31
0.0
  0
LINE
  5
5E94
  8
0
 62
     0
 10
19.517688105235159
 20
52.861199504966571
 30
0.0
 11
19.517688105235159
 21
52.861199504966571
 31
0.0
  0
LINE
  5
5E95
  8
0
 62
     0
 10
19.424053883460282
 20
52.946999461333768
 30
0.0
 11
19.424053883460282
 21
52.946999461333768
 31
0.0
  0
LINE
  5
5E96
  8
0
 62
     0
 10
18.918429085875879
 20
53.410319225716592
 30
0.0
 11
18.918429085875879
 21
53.410319225716592
 31
0.0
  0
LINE
  5
5E97
  8
0
 62
     0
 10
21.486754536957221
 20
52.902082357427879
 30
0.0
 11
21.486754536957221
 21
52.902082357427879
 31
0.0
  0
LINE
  5
5E98
  8
0
 62
     0
 10
21.044801010179761
 20
53.307058151481009
 30
0.0
 11
21.044801010179761
 21
53.307058151481009
 31
0.0
  0
LINE
  5
5E99
  8
0
 62
     0
 10
20.951166788404858
 20
53.392858107848198
 30
0.0
 11
20.951166788404858
 21
53.392858107848198
 31
0.0
  0
LINE
  5
5E9A
  8
0
 62
     0
 10
19.448276276714161
 20
56.615203342404882
 30
0.0
 11
19.448276276714161
 21
56.615203342404882
 31
0.0
  0
LINE
  5
5E9B
  8
0
 62
     0
 10
19.354642054939291
 20
56.701003298772072
 30
0.0
 11
19.354642054939291
 21
56.701003298772072
 31
0.0
  0
LINE
  5
5E9C
  8
0
 62
     0
 10
18.849017257354902
 20
57.164323063154882
 30
0.0
 11
18.849017257354902
 21
57.164323063154882
 31
0.0
  0
LINE
  5
5E9D
  8
0
 62
     0
 10
21.41734270843622
 20
56.656086194866191
 30
0.0
 11
21.41734270843622
 21
56.656086194866191
 31
0.0
  0
LINE
  5
5E9E
  8
0
 62
     0
 10
20.975389181658748
 20
57.061061988919299
 30
0.0
 11
20.975389181658748
 21
57.061061988919299
 31
0.0
  0
LINE
  5
5E9F
  8
0
 62
     0
 10
20.881754959883871
 20
57.146861945286489
 30
0.0
 11
20.881754959883871
 21
57.146861945286489
 31
0.0
  0
LINE
  5
5EA0
  8
0
 62
     0
 10
20.376130162299479
 20
57.610181709669313
 30
0.0
 11
20.376130162299479
 21
57.610181709669313
 31
0.0
  0
LINE
  5
5EA1
  8
0
 62
     0
 10
19.934176635522022
 20
58.015157503722442
 30
0.0
 11
19.934176635522022
 21
58.015157503722442
 31
0.0
  0
LINE
  5
5EA2
  8
0
 62
     0
 10
19.840542413747141
 20
58.100957460089639
 30
0.0
 11
19.840542413747141
 21
58.100957460089639
 31
0.0
  0
LINE
  5
5EA3
  8
0
 62
     0
 10
19.334917616162759
 20
58.564277224472463
 30
0.0
 11
19.334917616162759
 21
58.564277224472463
 31
0.0
  0
LINE
  5
5EA4
  8
0
 62
     0
 10
18.892964089385298
 20
58.969253018525578
 30
0.0
 11
18.892964089385298
 21
58.969253018525578
 31
0.0
  0
LINE
  5
5EA5
  8
0
 62
     0
 10
18.799329867610421
 20
59.055052974892767
 30
0.0
 11
18.799329867610421
 21
59.055052974892767
 31
0.0
  0
LINE
  5
5EA6
  8
0
 62
     0
 10
21.46128954046662
 20
58.461016150236873
 30
0.0
 11
21.46128954046662
 21
58.461016150236873
 31
0.0
  0
LINE
  5
5EA7
  8
0
 62
     0
 10
21.367655318691732
 20
58.546816106604062
 30
0.0
 11
21.367655318691732
 21
58.546816106604062
 31
0.0
  0
LINE
  5
5EA8
  8
0
 62
     0
 10
20.86203052110735
 20
59.010135870986879
 30
0.0
 11
20.86203052110735
 21
59.010135870986879
 31
0.0
  0
LINE
  5
5EA9
  8
0
 62
     0
 10
20.4200769943299
 20
59.415111665040008
 30
0.0
 11
20.4200769943299
 21
59.415111665040008
 31
0.0
  0
LINE
  5
5EAA
  8
0
 62
     0
 10
20.326442772555009
 20
59.500911621407191
 30
0.0
 11
20.326442772555009
 21
59.500911621407191
 31
0.0
  0
LINE
  5
5EAB
  8
0
 62
     0
 10
19.820817974970641
 20
59.964231385790001
 30
0.0
 11
19.820817974970641
 21
59.964231385790001
 31
0.0
  0
LINE
  5
5EAC
  8
0
 62
     0
 10
19.94306916058796
 20
50.509383618055921
 30
0.0
 11
19.94306916058796
 21
50.509383618055921
 31
0.0
  0
LINE
  5
5EAD
  8
0
 62
     0
 10
19.171872022536672
 20
51.000690379928272
 30
0.0
 11
19.171872022536672
 21
51.000690379928272
 31
0.0
  0
LINE
  5
5EAE
  8
0
 62
     0
 10
18.957650595300201
 20
51.137164480448362
 30
0.0
 11
18.957650595300201
 21
51.137164480448362
 31
0.0
  0
LINE
  5
5EAF
  8
0
 62
     0
 10
21.52505390107088
 20
50.512257987413037
 30
0.0
 11
21.52505390107088
 21
50.512257987413037
 31
0.0
  0
LINE
  5
5EB0
  8
0
 62
     0
 10
20.753856763019559
 20
51.003564749285381
 30
0.0
 11
20.753856763019559
 21
51.003564749285381
 31
0.0
  0
LINE
  5
5EB1
  8
0
 62
     0
 10
20.5396353357831
 20
51.140038849805471
 30
0.0
 11
20.5396353357831
 21
51.140038849805471
 31
0.0
  0
LINE
  5
5EB2
  8
0
 62
     0
 10
19.532794627771668
 20
51.7814671222499
 30
0.0
 11
19.532794627771668
 21
51.7814671222499
 31
0.0
  0
LINE
  5
5EB3
  8
0
 62
     0
 10
18.761597489720359
 20
52.272773884122252
 30
0.0
 11
18.761597489720359
 21
52.272773884122252
 31
0.0
  0
LINE
  5
5EB4
  8
0
 62
     0
 10
21.114779368254609
 20
51.78434149160698
 30
0.0
 11
21.114779368254609
 21
51.78434149160698
 31
0.0
  0
LINE
  5
5EB5
  8
0
 62
     0
 10
20.34358223020331
 20
52.275648253479332
 30
0.0
 11
20.34358223020331
 21
52.275648253479332
 31
0.0
  0
LINE
  5
5EB6
  8
0
 62
     0
 10
20.129360802966819
 20
52.412122353999422
 30
0.0
 11
20.129360802966819
 21
52.412122353999422
 31
0.0
  0
LINE
  5
5EB7
  8
0
 62
     0
 10
19.122520094955402
 20
53.053550626443872
 30
0.0
 11
19.122520094955402
 21
53.053550626443872
 31
0.0
  0
LINE
  5
5EB8
  8
0
 62
     0
 10
20.704504835438289
 20
53.05642499580096
 30
0.0
 11
20.704504835438289
 21
53.05642499580096
 31
0.0
  0
LINE
  5
5EB9
  8
0
 62
     0
 10
19.933307697387001
 20
53.54773175767329
 30
0.0
 11
19.933307697387001
 21
53.54773175767329
 31
0.0
  0
LINE
  5
5EBA
  8
0
 62
     0
 10
21.51529243786991
 20
53.550606127030377
 30
0.0
 11
21.51529243786991
 21
53.550606127030377
 31
0.0
  0
LINE
  5
5EBB
  8
0
 62
     0
 10
19.47368123698946
 20
56.872675508382812
 30
0.0
 11
19.47368123698946
 21
56.872675508382812
 31
0.0
  0
LINE
  5
5EBC
  8
0
 62
     0
 10
18.702484098938161
 20
57.363982270255171
 30
0.0
 11
18.702484098938161
 21
57.363982270255171
 31
0.0
  0
LINE
  5
5EBD
  8
0
 62
     0
 10
21.055665977472358
 20
56.875549877739928
 30
0.0
 11
21.055665977472358
 21
56.875549877739928
 31
0.0
  0
LINE
  5
5EBE
  8
0
 62
     0
 10
20.284468839421049
 20
57.36685663961228
 30
0.0
 11
20.284468839421049
 21
57.36685663961228
 31
0.0
  0
LINE
  5
5EBF
  8
0
 62
     0
 10
20.070247412184582
 20
57.50333074013237
 30
0.0
 11
20.070247412184582
 21
57.50333074013237
 31
0.0
  0
LINE
  5
5EC0
  8
0
 62
     0
 10
19.063406704173161
 20
58.144759012576792
 30
0.0
 11
19.063406704173161
 21
58.144759012576792
 31
0.0
  0
LINE
  5
5EC1
  8
0
 62
     0
 10
20.64539144465607
 20
58.1476333819339
 30
0.0
 11
20.64539144465607
 21
58.1476333819339
 31
0.0
  0
LINE
  5
5EC2
  8
0
 62
     0
 10
19.87419430660476
 20
58.638940143806238
 30
0.0
 11
19.87419430660476
 21
58.638940143806238
 31
0.0
  0
LINE
  5
5EC3
  8
0
 62
     0
 10
19.659972879368301
 20
58.775414244326342
 30
0.0
 11
19.659972879368301
 21
58.775414244326342
 31
0.0
  0
LINE
  5
5EC4
  8
0
 62
     0
 10
18.653132171356869
 20
59.416842516770771
 30
0.0
 11
18.653132171356869
 21
59.416842516770771
 31
0.0
  0
LINE
  5
5EC5
  8
0
 62
     0
 10
21.456179047087701
 20
58.641814513163332
 30
0.0
 11
21.456179047087701
 21
58.641814513163332
 31
0.0
  0
LINE
  5
5EC6
  8
0
 62
     0
 10
21.241957619851231
 20
58.778288613683422
 30
0.0
 11
21.241957619851231
 21
58.778288613683422
 31
0.0
  0
LINE
  5
5EC7
  8
0
 62
     0
 10
20.235116911839789
 20
59.419716886127858
 30
0.0
 11
20.235116911839789
 21
59.419716886127858
 31
0.0
  0
LINE
  5
5EC8
  8
0
 62
     0
 10
19.463919773788501
 20
59.91102364800021
 30
0.0
 11
19.463919773788501
 21
59.91102364800021
 31
0.0
  0
LINE
  5
5EC9
  8
0
 62
     0
 10
21.045904514271399
 20
59.91389801735729
 30
0.0
 11
21.045904514271399
 21
59.91389801735729
 31
0.0
  0
LINE
  5
5ECA
  8
0
 62
     0
 10
21.413863986453791
 20
50.225170870415383
 30
0.0
 11
21.413863986453791
 21
50.225170870415383
 31
0.0
  0
LINE
  5
5ECB
  8
0
 62
     0
 10
21.1494456419254
 20
50.190359534950311
 30
0.0
 11
21.1494456419254
 21
50.190359534950311
 31
0.0
  0
LINE
  5
5ECC
  8
0
 62
     0
 10
20.459439676203679
 20
50.099518526212819
 30
0.0
 11
20.459439676203679
 21
50.099518526212819
 31
0.0
  0
LINE
  5
5ECD
  8
0
 62
     0
 10
20.046443404749802
 20
50.045146535581637
 30
0.0
 11
20.046443404749802
 21
50.045146535581637
 31
0.0
  0
LINE
  5
5ECE
  8
0
 62
     0
 10
21.358486242479682
 20
51.533168727349519
 30
0.0
 11
21.358486242479682
 21
51.533168727349519
 31
0.0
  0
LINE
  5
5ECF
  8
0
 62
     0
 10
20.945489971025811
 20
51.478796736718337
 30
0.0
 11
20.945489971025811
 21
51.478796736718337
 31
0.0
  0
LINE
  5
5ED0
  8
0
 62
     0
 10
20.68107162649742
 20
51.443985401253258
 30
0.0
 11
20.68107162649742
 21
51.443985401253258
 31
0.0
  0
LINE
  5
5ED1
  8
0
 62
     0
 10
19.991065660775689
 20
51.35314439251578
 30
0.0
 11
19.991065660775689
 21
51.35314439251578
 31
0.0
  0
LINE
  5
5ED2
  8
0
 62
     0
 10
19.578069389321829
 20
51.298772401884598
 30
0.0
 11
19.578069389321829
 21
51.298772401884598
 31
0.0
  0
LINE
  5
5ED3
  8
0
 62
     0
 10
19.313651044793431
 20
51.263961066419512
 30
0.0
 11
19.313651044793431
 21
51.263961066419512
 31
0.0
  0
LINE
  5
5ED4
  8
0
 62
     0
 10
21.580118192773408
 20
52.877635602389958
 30
0.0
 11
21.580118192773408
 21
52.877635602389958
 31
0.0
  0
LINE
  5
5ED5
  8
0
 62
     0
 10
20.890112227051691
 20
52.786794593652502
 30
0.0
 11
20.890112227051691
 21
52.786794593652502
 31
0.0
  0
LINE
  5
5ED6
  8
0
 62
     0
 10
20.477115955597831
 20
52.73242260302132
 30
0.0
 11
20.477115955597831
 21
52.73242260302132
 31
0.0
  0
LINE
  5
5ED7
  8
0
 62
     0
 10
20.212697611069441
 20
52.697611267556212
 30
0.0
 11
20.212697611069441
 21
52.697611267556212
 31
0.0
  0
LINE
  5
5ED8
  8
0
 62
     0
 10
19.52269164534772
 20
52.606770258818742
 30
0.0
 11
19.52269164534772
 21
52.606770258818742
 31
0.0
  0
LINE
  5
5ED9
  8
0
 62
     0
 10
19.10969537389385
 20
52.552398268187567
 30
0.0
 11
19.10969537389385
 21
52.552398268187567
 31
0.0
  0
LINE
  5
5EDA
  8
0
 62
     0
 10
18.845277029365441
 20
52.517586932722487
 30
0.0
 11
18.845277029365441
 21
52.517586932722487
 31
0.0
  0
LINE
  5
5EDB
  8
0
 62
     0
 10
21.542416728193452
 20
56.818537536132602
 30
0.0
 11
21.542416728193452
 21
56.818537536132602
 31
0.0
  0
LINE
  5
5EDC
  8
0
 62
     0
 10
20.852410762471742
 20
56.727696527395139
 30
0.0
 11
20.852410762471742
 21
56.727696527395139
 31
0.0
  0
LINE
  5
5EDD
  8
0
 62
     0
 10
20.439414491017871
 20
56.673324536763957
 30
0.0
 11
20.439414491017871
 21
56.673324536763957
 31
0.0
  0
LINE
  5
5EDE
  8
0
 62
     0
 10
20.174996146489459
 20
56.638513201298892
 30
0.0
 11
20.174996146489459
 21
56.638513201298892
 31
0.0
  0
LINE
  5
5EDF
  8
0
 62
     0
 10
19.484990180767738
 20
56.5476721925614
 30
0.0
 11
19.484990180767738
 21
56.5476721925614
 31
0.0
  0
LINE
  5
5EE0
  8
0
 62
     0
 10
19.071993909313878
 20
56.493300201930232
 30
0.0
 11
19.071993909313878
 21
56.493300201930232
 31
0.0
  0
LINE
  5
5EE1
  8
0
 62
     0
 10
18.807575564785481
 20
56.458488866465139
 30
0.0
 11
18.807575564785481
 21
56.458488866465139
 31
0.0
  0
LINE
  5
5EE2
  8
0
 62
     0
 10
21.33846105729387
 20
58.106974737900657
 30
0.0
 11
21.33846105729387
 21
58.106974737900657
 31
0.0
  0
LINE
  5
5EE3
  8
0
 62
     0
 10
21.074042712765479
 20
58.072163402435592
 30
0.0
 11
21.074042712765479
 21
58.072163402435592
 31
0.0
  0
LINE
  5
5EE4
  8
0
 62
     0
 10
20.384036747043758
 20
57.981322393698122
 30
0.0
 11
20.384036747043758
 21
57.981322393698122
 31
0.0
  0
LINE
  5
5EE5
  8
0
 62
     0
 10
19.971040475589881
 20
57.92695040306694
 30
0.0
 11
19.971040475589881
 21
57.92695040306694
 31
0.0
  0
LINE
  5
5EE6
  8
0
 62
     0
 10
19.706622131061479
 20
57.892139067601853
 30
0.0
 11
19.706622131061479
 21
57.892139067601853
 31
0.0
  0
LINE
  5
5EE7
  8
0
 62
     0
 10
19.01661616533978
 20
57.801298058864383
 30
0.0
 11
19.01661616533978
 21
57.801298058864383
 31
0.0
  0
LINE
  5
5EE8
  8
0
 62
     0
 10
21.283083313319761
 20
59.414972594834822
 30
0.0
 11
21.283083313319761
 21
59.414972594834822
 31
0.0
  0
LINE
  5
5EE9
  8
0
 62
     0
 10
20.870087041865879
 20
59.360600604203647
 30
0.0
 11
20.870087041865879
 21
59.360600604203647
 31
0.0
  0
LINE
  5
5EEA
  8
0
 62
     0
 10
20.605668697337489
 20
59.325789268738568
 30
0.0
 11
20.605668697337489
 21
59.325789268738568
 31
0.0
  0
LINE
  5
5EEB
  8
0
 62
     0
 10
19.915662731615761
 20
59.23494826000109
 30
0.0
 11
19.915662731615761
 21
59.23494826000109
 31
0.0
  0
LINE
  5
5EEC
  8
0
 62
     0
 10
19.50266646016189
 20
59.180576269369901
 30
0.0
 11
19.50266646016189
 21
59.180576269369901
 31
0.0
  0
LINE
  5
5EED
  8
0
 62
     0
 10
19.238248115633489
 20
59.1457649339048
 30
0.0
 11
19.238248115633489
 21
59.1457649339048
 31
0.0
  0
LINE
  5
5EEE
  8
0
 62
     0
 10
21.58137877805677
 20
50.274231558912007
 30
0.0
 11
21.58137877805677
 21
50.274231558912007
 31
0.0
  0
LINE
  5
5EEF
  8
0
 62
     0
 10
21.549378152137081
 20
51.253058033570703
 30
0.0
 11
21.549378152137081
 21
51.253058033570703
 31
0.0
  0
LINE
  5
5EF0
  8
0
 62
     0
 10
20.864238207461572
 20
50.727331663478772
 30
0.0
 11
20.864238207461572
 21
50.727331663478772
 31
0.0
  0
LINE
  5
5EF1
  8
0
 62
     0
 10
20.251642492222299
 20
50.2572704384554
 30
0.0
 11
20.251642492222299
 21
50.2572704384554
 31
0.0
  0
LINE
  5
5EF2
  8
0
 62
     0
 10
21.517377526217409
 20
52.231884508229378
 30
0.0
 11
21.517377526217409
 21
52.231884508229378
 31
0.0
  0
LINE
  5
5EF3
  8
0
 62
     0
 10
20.832237581541879
 20
51.706158138137447
 30
0.0
 11
20.832237581541879
 21
51.706158138137447
 31
0.0
  0
LINE
  5
5EF4
  8
0
 62
     0
 10
20.21964186630262
 20
51.236096913114082
 30
0.0
 11
20.21964186630262
 21
51.236096913114082
 31
0.0
  0
LINE
  5
5EF5
  8
0
 62
     0
 10
19.564728683892191
 20
50.733564353467379
 30
0.0
 11
19.564728683892191
 21
50.733564353467379
 31
0.0
  0
LINE
  5
5EF6
  8
0
 62
     0
 10
18.87958873921669
 20
50.207837983375462
 30
0.0
 11
18.87958873921669
 21
50.207837983375462
 31
0.0
  0
LINE
  5
5EF7
  8
0
 62
     0
 10
21.48537690029773
 20
53.210710982888067
 30
0.0
 11
21.48537690029773
 21
53.210710982888067
 31
0.0
  0
LINE
  5
5EF8
  8
0
 62
     0
 10
20.800236955622211
 20
52.684984612796129
 30
0.0
 11
20.800236955622211
 21
52.684984612796129
 31
0.0
  0
LINE
  5
5EF9
  8
0
 62
     0
 10
20.187641240382941
 20
52.214923387772757
 30
0.0
 11
20.187641240382941
 21
52.214923387772757
 31
0.0
  0
LINE
  5
5EFA
  8
0
 62
     0
 10
19.53272805797253
 20
51.712390828126068
 30
0.0
 11
19.53272805797253
 21
51.712390828126068
 31
0.0
  0
LINE
  5
5EFB
  8
0
 62
     0
 10
18.847588113297
 20
51.18666445803413
 30
0.0
 11
18.847588113297
 21
51.18666445803413
 31
0.0
  0
LINE
  5
5EFC
  8
0
 62
     0
 10
20.768236329702528
 20
53.663811087454818
 30
0.0
 11
20.768236329702528
 21
53.663811087454818
 31
0.0
  0
LINE
  5
5EFD
  8
0
 62
     0
 10
20.155640614463248
 20
53.193749862431432
 30
0.0
 11
20.155640614463248
 21
53.193749862431432
 31
0.0
  0
LINE
  5
5EFE
  8
0
 62
     0
 10
19.50072743205283
 20
52.69121730278475
 30
0.0
 11
19.50072743205283
 21
52.69121730278475
 31
0.0
  0
LINE
  5
5EFF
  8
0
 62
     0
 10
18.815587487377329
 20
52.165490932692819
 30
0.0
 11
18.815587487377329
 21
52.165490932692819
 31
0.0
  0
LINE
  5
5F00
  8
0
 62
     0
 10
19.468726806133159
 20
53.670043777443432
 30
0.0
 11
19.468726806133159
 21
53.670043777443432
 31
0.0
  0
LINE
  5
5F01
  8
0
 62
     0
 10
18.783586861457639
 20
53.144317407351501
 30
0.0
 11
18.783586861457639
 21
53.144317407351501
 31
0.0
  0
LINE
  5
5F02
  8
0
 62
     0
 10
21.357374396619001
 20
57.126016881522808
 30
0.0
 11
21.357374396619001
 21
57.126016881522808
 31
0.0
  0
LINE
  5
5F03
  8
0
 62
     0
 10
20.672234451943488
 20
56.600290511430863
 30
0.0
 11
20.672234451943488
 21
56.600290511430863
 31
0.0
  0
LINE
  5
5F04
  8
0
 62
     0
 10
21.325373770699318
 20
58.10484335618149
 30
0.0
 11
21.325373770699318
 21
58.10484335618149
 31
0.0
  0
LINE
  5
5F05
  8
0
 62
     0
 10
20.640233826023799
 20
57.579116986089574
 30
0.0
 11
20.640233826023799
 21
57.579116986089574
 31
0.0
  0
LINE
  5
5F06
  8
0
 62
     0
 10
20.02763811078453
 20
57.10905576106618
 30
0.0
 11
20.02763811078453
 21
57.10905576106618
 31
0.0
  0
LINE
  5
5F07
  8
0
 62
     0
 10
19.372724928374119
 20
56.606523201419499
 30
0.0
 11
19.372724928374119
 21
56.606523201419499
 31
0.0
  0
LINE
  5
5F08
  8
0
 62
     0
 10
21.29337314477965
 20
59.083669830840179
 30
0.0
 11
21.29337314477965
 21
59.083669830840179
 31
0.0
  0
LINE
  5
5F09
  8
0
 62
     0
 10
20.608233200104142
 20
58.557943460748263
 30
0.0
 11
20.608233200104142
 21
58.557943460748263
 31
0.0
  0
LINE
  5
5F0A
  8
0
 62
     0
 10
19.995637484864851
 20
58.087882235724877
 30
0.0
 11
19.995637484864851
 21
58.087882235724877
 31
0.0
  0
LINE
  5
5F0B
  8
0
 62
     0
 10
19.340724302454451
 20
57.585349676078167
 30
0.0
 11
19.340724302454451
 21
57.585349676078167
 31
0.0
  0
LINE
  5
5F0C
  8
0
 62
     0
 10
18.65558435777892
 20
57.059623305986271
 30
0.0
 11
18.65558435777892
 21
57.059623305986271
 31
0.0
  0
LINE
  5
5F0D
  8
0
 62
     0
 10
20.576232574184441
 20
59.53676993540693
 30
0.0
 11
20.576232574184441
 21
59.53676993540693
 31
0.0
  0
LINE
  5
5F0E
  8
0
 62
     0
 10
19.963636858945161
 20
59.066708710383551
 30
0.0
 11
19.963636858945161
 21
59.066708710383551
 31
0.0
  0
LINE
  5
5F0F
  8
0
 62
     0
 10
19.308723676534751
 20
58.564176150736841
 30
0.0
 11
19.308723676534751
 21
58.564176150736841
 31
0.0
  0
LINE
  5
5F10
  8
0
 62
     0
 10
19.276723050615072
 20
59.543002625395538
 30
0.0
 11
19.276723050615072
 21
59.543002625395538
 31
0.0
  0
ENDBLK
  5
5F11
  8
0
  0
BLOCK
  8
0
  2
*X1
 70
     1
 10
0.0
 20
0.0
 30
0.0
  3
*X1
  1

  0
LINE
  5
5F14
  8
0
 62
     0
 10
21.647063048253528
 20
74.707188219205548
 30
0.0
 11
21.457666186211689
 21
75.035233207056095
 31
0.0
  0
LINE
  5
5F15
  8
0
 62
     0
 10
21.647063048253528
 20
73.119688219205557
 30
0.0
 11
20.541122633873162
 21
75.035233207056095
 31
0.0
  0
LINE
  5
5F16
  8
0
 62
     0
 10
21.647063048253528
 20
71.532188219205551
 30
0.0
 11
19.624579081534641
 21
75.035233207056095
 31
0.0
  0
LINE
  5
5F17
  8
0
 62
     0
 10
20.8102649863471
 20
71.394064978102662
 30
0.0
 11
18.708035529196088
 21
75.035233207056095
 31
0.0
  0
LINE
  5
5F18
  8
0
 62
     0
 10
21.647063048253528
 20
69.944688219205517
 30
0.0
 11
21.64383455931625
 21
69.950280126076592
 31
0.0
  0
LINE
  5
5F19
  8
0
 62
     0
 10
19.824710484482399
 20
71.513595448960515
 30
0.0
 11
18.64706304825355
 21
73.553340641912129
 31
0.0
  0
LINE
  5
5F1A
  8
0
 62
     0
 10
21.647063048253528
 20
68.357188219205526
 30
0.0
 11
21.254573732673151
 21
69.036999655218693
 31
0.0
  0
LINE
  5
5F1B
  8
0
 62
     0
 10
19.12180623788036
 20
71.143561316931198
 30
0.0
 11
18.647063048253528
 21
71.96584064191218
 31
0.0
  0
LINE
  5
5F1C
  8
0
 62
     0
 10
21.647063048253528
 20
66.769688219205548
 30
0.0
 11
20.582662650767389
 21
68.613283787248037
 31
0.0
  0
LINE
  5
5F1D
  8
0
 62
     0
 10
18.67400708694943
 20
70.331672197929777
 30
0.0
 11
18.64706304825355
 21
70.37834064191216
 31
0.0
  0
LINE
  5
5F1E
  8
0
 62
     0
 10
21.647063048253528
 20
65.182188219205528
 30
0.0
 11
19.655646473190519
 21
68.631422906249455
 31
0.0
  0
LINE
  5
5F1F
  8
0
 62
     0
 10
20.815364011738239
 20
65.035233207056095
 30
0.0
 11
18.647063048253528
 21
68.790840641912155
 31
0.0
  0
LINE
  5
5F20
  8
0
 62
     0
 10
19.898820459399701
 20
65.035233207056095
 30
0.0
 11
18.647063048253528
 21
67.203340641912149
 31
0.0
  0
LINE
  5
5F21
  8
0
 62
     0
 10
18.982276907061159
 20
65.035233207056123
 30
0.0
 11
18.647063048253528
 21
65.615840641912129
 31
0.0
  0
LINE
  5
5F22
  8
0
 62
     0
 10
20.762465980198609
 20
65.035233207056081
 30
0.0
 11
21.647063048253511
 21
66.567400273153638
 31
0.0
  0
LINE
  5
5F23
  8
0
 62
     0
 10
19.845922427860081
 20
65.035233207056081
 30
0.0
 11
21.647063048253511
 21
68.154900273153615
 31
0.0
  0
LINE
  5
5F24
  8
0
 62
     0
 10
21.59257542519428
 20
69.648024941631391
 30
0.0
 11
21.647063048253511
 21
69.742400273153649
 31
0.0
  0
LINE
  5
5F25
  8
0
 62
     0
 10
18.929378875521561
 20
65.035233207056095
 30
0.0
 11
21.21676372231676
 21
68.997099978168535
 31
0.0
  0
LINE
  5
5F26
  8
0
 62
     0
 10
21.391149451710099
 20
70.886644921592776
 30
0.0
 11
21.647063048253511
 21
71.32990027315364
 31
0.0
  0
LINE
  5
5F27
  8
0
 62
     0
 10
18.647063048253511
 20
66.133747850446994
 30
0.0
 11
20.04337436729314
 21
68.552229998207153
 31
0.0
  0
LINE
  5
5F28
  8
0
 62
     0
 10
20.77679513904901
 20
71.410052038214673
 30
0.0
 11
21.647063048253521
 21
72.917400273153632
 31
0.0
  0
LINE
  5
5F29
  8
0
 62
     0
 10
18.647063048253511
 20
67.721247850447
 30
0.0
 11
19.28291335144646
 21
68.822572881585259
 31
0.0
  0
LINE
  5
5F2A
  8
0
 62
     0
 10
19.931256776958129
 20
71.533036635324706
 30
0.0
 11
21.647063048253511
 21
74.504900273153623
 31
0.0
  0
LINE
  5
5F2B
  8
0
 62
     0
 10
18.647063048253511
 20
69.308747850447006
 30
0.0
 11
18.753636385029541
 21
69.493338284475215
 31
0.0
  0
LINE
  5
5F2C
  8
0
 62
     0
 10
18.647063048253511
 20
70.896247850446997
 30
0.0
 11
21.03670735806368
 21
75.035233207056081
 31
0.0
  0
LINE
  5
5F2D
  8
0
 62
     0
 10
18.647063048253511
 20
72.483747850447017
 30
0.0
 11
20.120163805725159
 21
75.035233207056095
 31
0.0
  0
LINE
  5
5F2E
  8
0
 62
     0
 10
18.647063048253511
 20
74.071247850446994
 30
0.0
 11
19.203620253386632
 21
75.035233207056081
 31
0.0
  0
LINE
  5
5F2F
  8
0
 62
     0
 10
18.647063048253511
 20
65.081044246179573
 30
0.0
 11
21.647063048253511
 21
65.081044246179573
 31
0.0
  0
LINE
  5
5F30
  8
0
 62
     0
 10
18.647063048253511
 20
65.87479424617959
 30
0.0
 11
21.647063048253511
 21
65.87479424617959
 31
0.0
  0
LINE
  5
5F31
  8
0
 62
     0
 10
18.647063048253511
 20
66.668544246179579
 30
0.0
 11
21.647063048253511
 21
66.668544246179579
 31
0.0
  0
LINE
  5
5F32
  8
0
 62
     0
 10
18.647063048253511
 20
67.462294246179582
 30
0.0
 11
21.647063048253511
 21
67.462294246179582
 31
0.0
  0
LINE
  5
5F33
  8
0
 62
     0
 10
18.647063048253511
 20
68.256044246179584
 30
0.0
 11
21.647063048253511
 21
68.256044246179584
 31
0.0
  0
LINE
  5
5F34
  8
0
 62
     0
 10
21.266126635656349
 20
69.049794246179587
 30
0.0
 11
21.647063048253511
 21
69.049794246179587
 31
0.0
  0
LINE
  5
5F35
  8
0
 62
     0
 10
18.647063048253511
 20
69.049794246179587
 30
0.0
 11
19.02799946085069
 21
69.049794246179587
 31
0.0
  0
LINE
  5
5F36
  8
0
 62
     0
 10
21.632975206410819
 20
69.84354424617959
 30
0.0
 11
21.647063048253511
 21
69.84354424617959
 31
0.0
  0
LINE
  5
5F37
  8
0
 62
     0
 10
18.647063048253511
 20
69.84354424617959
 30
0.0
 11
18.661150890096209
 21
69.84354424617959
 31
0.0
  0
LINE
  5
5F38
  8
0
 62
     0
 10
21.526732735486121
 20
70.637294246179579
 30
0.0
 11
21.647063048253511
 21
70.637294246179579
 31
0.0
  0
LINE
  5
5F39
  8
0
 62
     0
 10
18.647063048253511
 20
70.637294246179579
 30
0.0
 11
18.767393361020918
 21
70.637294246179579
 31
0.0
  0
LINE
  5
5F3A
  8
0
 62
     0
 10
20.729269047000798
 20
71.431044246179582
 30
0.0
 11
21.647063048253511
 21
71.431044246179582
 31
0.0
  0
LINE
  5
5F3B
  8
0
 62
     0
 10
18.647063048253511
 20
71.431044246179582
 30
0.0
 11
19.564857049506241
 21
71.431044246179582
 31
0.0
  0
LINE
  5
5F3C
  8
0
 62
     0
 10
18.647063048253511
 20
72.224794246179584
 30
0.0
 11
21.647063048253511
 21
72.224794246179584
 31
0.0
  0
LINE
  5
5F3D
  8
0
 62
     0
 10
18.647063048253511
 20
73.018544246179587
 30
0.0
 11
21.647063048253511
 21
73.018544246179587
 31
0.0
  0
LINE
  5
5F3E
  8
0
 62
     0
 10
18.647063048253511
 20
73.81229424617959
 30
0.0
 11
21.647063048253511
 21
73.81229424617959
 31
0.0
  0
LINE
  5
5F3F
  8
0
 62
     0
 10
18.647063048253511
 20
74.606044246179579
 30
0.0
 11
21.647063048253511
 21
74.606044246179579
 31
0.0
  0
ENDBLK
  5
5F40
  8
0
  0
ENDSEC
  0
SECTION
  2
ENTITIES
  0
LINE
  5
5F41
  8
0
 10
20.0
 20
479.14284323383271
 30
0.0
 11
177.0
 21
479.14284323383271
 31
0.0
  0
TEXT
  5
5F42
  8
0
 10
119.40000082807239
 20
467.64284353417497
 30
0.0
 40
3.0
  1
記　　　事
 72
     4
 11
128.00000082807239
 21
469.14284353417509
 31
0.0
  0
TEXT
  5
5F43
  8
0
 10
54.956175280590472
 20
468.14284323383282
 30
0.0
 40
3.0
  1
地質区分
 72
     4
 11
61.756175280590469
 21
469.64284323383271
 31
0.0
  0
TEXT
  5
5F44
  8
0
 10
15.0
 20
479.86054236615018
 30
0.0
 40
3.0
  1
標　　尺
  7
STANDATDT
 72
     4
 11
15.0
 21
472.96054236615021
 31
0.0
  0
TEXT
  5
5F45
  8
0
 10
25.0
 20
476.24284323383267
 30
0.0
 40
3.0
  1
標　高
  7
STANDATDT
 72
     4
 11
25.0
 21
471.14284323383271
 31
0.0
  0
TEXT
  5
5F46
  8
0
 10
45.0
 20
476.54284323383268
 30
0.0
 40
3.0
  1
柱 状 図
  7
STANDATDT
 72
     4
 11
45.0
 21
469.64284323383271
 31
0.0
  0
TEXT
  5
5F47
  8
0
 10
35.0
 20
476.24284323383267
 30
0.0
 40
3.0
  1
深　度
  7
STANDATDT
 72
     4
 11
35.0
 21
471.14284323383271
 31
0.0
  0
LINE
  5
5F48
  8
0
 10
30.0
 20
460.14284323383282
 30
0.0
 11
30.0
 21
479.14284323383271
 31
0.0
  0
LINE
  5
5F49
  8
0
 10
40.0
 20
460.14284323383282
 30
0.0
 11
40.0
 21
479.14284323383271
 31
0.0
  0
LINE
  5
5F4A
  8
0
 10
20.0
 20
460.14284323383282
 30
0.0
 11
20.0
 21
485.14284323383282
 31
0.0
  0
LINE
  5
5F4B
  8
0
 10
10.0
 20
359.14284323383271
 30
0.0
 11
13.0
 21
359.14284323383271
 31
0.0
  0
LINE
  5
5F4C
  8
0
 10
10.0
 20
363.14284323383271
 30
0.0
 11
11.0
 21
363.14284323383271
 31
0.0
  0
LINE
  5
5F4D
  8
0
 10
10.0
 20
362.14284323383271
 30
0.0
 11
11.0
 21
362.14284323383271
 31
0.0
  0
LINE
  5
5F4E
  8
0
 10
10.0
 20
361.14284323383271
 30
0.0
 11
11.0
 21
361.14284323383271
 31
0.0
  0
LINE
  5
5F4F
  8
0
 10
10.0
 20
360.14284323383271
 30
0.0
 11
11.0
 21
360.14284323383271
 31
0.0
  0
LINE
  5
5F50
  8
0
 10
10.0
 20
369.14284323383271
 30
0.0
 11
13.0
 21
369.14284323383271
 31
0.0
  0
LINE
  5
5F51
  8
0
 10
10.0
 20
364.14284323383271
 30
0.0
 11
12.0
 21
364.14284323383271
 31
0.0
  0
LINE
  5
5F52
  8
0
 10
10.0
 20
371.14284323383271
 30
0.0
 11
11.0
 21
371.14284323383271
 31
0.0
  0
LINE
  5
5F53
  8
0
 10
10.0
 20
370.14284323383271
 30
0.0
 11
11.0
 21
370.14284323383271
 31
0.0
  0
LINE
  5
5F54
  8
0
 10
10.0
 20
365.14284323383271
 30
0.0
 11
11.0
 21
365.14284323383271
 31
0.0
  0
LINE
  5
5F55
  8
0
 10
10.0
 20
366.14284323383271
 30
0.0
 11
11.0
 21
366.14284323383271
 31
0.0
  0
LINE
  5
5F56
  8
0
 10
10.0
 20
367.14284323383271
 30
0.0
 11
11.0
 21
367.14284323383271
 31
0.0
  0
LINE
  5
5F57
  8
0
 10
10.0
 20
368.14284323383271
 30
0.0
 11
11.0
 21
368.14284323383271
 31
0.0
  0
LINE
  5
5F58
  8
0
 10
10.0
 20
379.14284323383271
 30
0.0
 11
13.0
 21
379.14284323383271
 31
0.0
  0
LINE
  5
5F59
  8
0
 10
10.0
 20
374.14284323383271
 30
0.0
 11
12.0
 21
374.14284323383271
 31
0.0
  0
LINE
  5
5F5A
  8
0
 10
10.0
 20
380.14284323383271
 30
0.0
 11
11.0
 21
380.14284323383271
 31
0.0
  0
LINE
  5
5F5B
  8
0
 10
10.0
 20
373.14284323383271
 30
0.0
 11
11.0
 21
373.14284323383271
 31
0.0
  0
LINE
  5
5F5C
  8
0
 10
10.0
 20
372.14284323383271
 30
0.0
 11
11.0
 21
372.14284323383271
 31
0.0
  0
LINE
  5
5F5D
  8
0
 10
10.0
 20
375.14284323383271
 30
0.0
 11
11.0
 21
375.14284323383271
 31
0.0
  0
LINE
  5
5F5E
  8
0
 10
10.0
 20
376.14284323383271
 30
0.0
 11
11.0
 21
376.14284323383271
 31
0.0
  0
LINE
  5
5F5F
  8
0
 10
10.0
 20
377.14284323383271
 30
0.0
 11
11.0
 21
377.14284323383271
 31
0.0
  0
LINE
  5
5F60
  8
0
 10
10.0
 20
378.14284323383271
 30
0.0
 11
11.0
 21
378.14284323383271
 31
0.0
  0
LINE
  5
5F61
  8
0
 10
10.0
 20
384.14284323383271
 30
0.0
 11
12.0
 21
384.14284323383271
 31
0.0
  0
LINE
  5
5F62
  8
0
 10
10.0
 20
383.14284323383271
 30
0.0
 11
11.0
 21
383.14284323383271
 31
0.0
  0
LINE
  5
5F63
  8
0
 10
10.0
 20
385.14284323383271
 30
0.0
 11
11.0
 21
385.14284323383271
 31
0.0
  0
LINE
  5
5F64
  8
0
 10
10.0
 20
386.14284323383271
 30
0.0
 11
11.0
 21
386.14284323383271
 31
0.0
  0
LINE
  5
5F65
  8
0
 10
10.0
 20
387.14284323383271
 30
0.0
 11
11.0
 21
387.14284323383271
 31
0.0
  0
LINE
  5
5F66
  8
0
 10
10.0
 20
388.14284323383271
 30
0.0
 11
11.0
 21
388.14284323383271
 31
0.0
  0
LINE
  5
5F67
  8
0
 10
10.0
 20
382.14284323383271
 30
0.0
 11
11.0
 21
382.14284323383271
 31
0.0
  0
LINE
  5
5F68
  8
0
 10
10.0
 20
381.14284323383271
 30
0.0
 11
11.0
 21
381.14284323383271
 31
0.0
  0
LINE
  5
5F69
  8
0
 10
10.0
 20
389.14284323383271
 30
0.0
 11
13.0
 21
389.14284323383271
 31
0.0
  0
LINE
  5
5F6A
  8
0
 10
10.0
 20
394.14284323383271
 30
0.0
 11
12.0
 21
394.14284323383271
 31
0.0
  0
LINE
  5
5F6B
  8
0
 10
10.0
 20
395.14284323383271
 30
0.0
 11
11.0
 21
395.14284323383271
 31
0.0
  0
LINE
  5
5F6C
  8
0
 10
10.0
 20
396.14284323383271
 30
0.0
 11
11.0
 21
396.14284323383271
 31
0.0
  0
LINE
  5
5F6D
  8
0
 10
10.0
 20
393.14284323383271
 30
0.0
 11
11.0
 21
393.14284323383271
 31
0.0
  0
LINE
  5
5F6E
  8
0
 10
10.0
 20
392.14284323383271
 30
0.0
 11
11.0
 21
392.14284323383271
 31
0.0
  0
LINE
  5
5F6F
  8
0
 10
10.0
 20
391.14284323383271
 30
0.0
 11
11.0
 21
391.14284323383271
 31
0.0
  0
LINE
  5
5F70
  8
0
 10
10.0
 20
390.14284323383271
 30
0.0
 11
11.0
 21
390.14284323383271
 31
0.0
  0
LINE
  5
5F71
  8
0
 10
10.0
 20
399.14284323383271
 30
0.0
 11
13.0
 21
399.14284323383271
 31
0.0
  0
LINE
  5
5F72
  8
0
 10
10.0
 20
404.14284323383271
 30
0.0
 11
12.0
 21
404.14284323383271
 31
0.0
  0
LINE
  5
5F73
  8
0
 10
10.0
 20
403.14284323383271
 30
0.0
 11
11.0
 21
403.14284323383271
 31
0.0
  0
LINE
  5
5F74
  8
0
 10
10.0
 20
402.14284323383282
 30
0.0
 11
11.0
 21
402.14284323383282
 31
0.0
  0
LINE
  5
5F75
  8
0
 10
10.0
 20
401.14284323383271
 30
0.0
 11
11.0
 21
401.14284323383271
 31
0.0
  0
LINE
  5
5F76
  8
0
 10
10.0
 20
400.14284323383271
 30
0.0
 11
11.0
 21
400.14284323383271
 31
0.0
  0
LINE
  5
5F77
  8
0
 10
10.0
 20
397.14284323383271
 30
0.0
 11
11.0
 21
397.14284323383271
 31
0.0
  0
LINE
  5
5F78
  8
0
 10
10.0
 20
398.14284323383271
 30
0.0
 11
11.0
 21
398.14284323383271
 31
0.0
  0
TEXT
  5
5F79
  8
0
 10
32.25
 20
461.97617656716602
 30
0.0
 40
2.5
  1
(ｍ)
 72
     1
 11
35.0
 21
461.64284323383271
 31
0.0
 73
     1
  0
LINE
  5
5F7A
  8
0
 10
10.0
 20
409.14284323383271
 30
0.0
 11
13.0
 21
409.14284323383271
 31
0.0
  0
LINE
  5
5F7B
  8
0
 10
10.0
 20
412.14284323383271
 30
0.0
 11
11.0
 21
412.14284323383271
 31
0.0
  0
LINE
  5
5F7C
  8
0
 10
10.0
 20
411.14284323383271
 30
0.0
 11
11.0
 21
411.14284323383271
 31
0.0
  0
LINE
  5
5F7D
  8
0
 10
10.0
 20
410.14284323383282
 30
0.0
 11
11.0
 21
410.14284323383282
 31
0.0
  0
LINE
  5
5F7E
  8
0
 10
10.0
 20
405.14284323383271
 30
0.0
 11
11.0
 21
405.14284323383271
 31
0.0
  0
LINE
  5
5F7F
  8
0
 10
10.0
 20
406.14284323383282
 30
0.0
 11
11.0
 21
406.14284323383282
 31
0.0
  0
LINE
  5
5F80
  8
0
 10
10.0
 20
407.14284323383271
 30
0.0
 11
11.0
 21
407.14284323383271
 31
0.0
  0
LINE
  5
5F81
  8
0
 10
10.0
 20
408.14284323383271
 30
0.0
 11
11.0
 21
408.14284323383271
 31
0.0
  0
LINE
  5
5F82
  8
0
 10
10.0
 20
419.14284323383271
 30
0.0
 11
13.0
 21
419.14284323383271
 31
0.0
  0
LINE
  5
5F83
  8
0
 10
10.0
 20
414.14284323383282
 30
0.0
 11
12.0
 21
414.14284323383282
 31
0.0
  0
LINE
  5
5F84
  8
0
 10
10.0
 20
421.14284323383271
 30
0.0
 11
11.0
 21
421.14284323383271
 31
0.0
  0
LINE
  5
5F85
  8
0
 10
10.0
 20
420.14284323383271
 30
0.0
 11
11.0
 21
420.14284323383271
 31
0.0
  0
LINE
  5
5F86
  8
0
 10
10.0
 20
415.14284323383271
 30
0.0
 11
11.0
 21
415.14284323383271
 31
0.0
  0
LINE
  5
5F87
  8
0
 10
10.0
 20
416.14284323383271
 30
0.0
 11
11.0
 21
416.14284323383271
 31
0.0
  0
LINE
  5
5F88
  8
0
 10
10.0
 20
417.14284323383271
 30
0.0
 11
11.0
 21
417.14284323383271
 31
0.0
  0
LINE
  5
5F89
  8
0
 10
10.0
 20
418.14284323383271
 30
0.0
 11
11.0
 21
418.14284323383271
 31
0.0
  0
LINE
  5
5F8A
  8
0
 10
10.0
 20
413.14284323383271
 30
0.0
 11
11.0
 21
413.14284323383271
 31
0.0
  0
LINE
  5
5F8B
  8
0
 10
10.0
 20
429.14284323383271
 30
0.0
 11
13.0
 21
429.14284323383271
 31
0.0
  0
LINE
  5
5F8C
  8
0
 10
10.0
 20
424.14284323383271
 30
0.0
 11
12.0
 21
424.14284323383271
 31
0.0
  0
LINE
  5
5F8D
  8
0
 10
10.0
 20
426.14284323383271
 30
0.0
 11
11.0
 21
426.14284323383271
 31
0.0
  0
LINE
  5
5F8E
  8
0
 10
10.0
 20
427.14284323383282
 30
0.0
 11
11.0
 21
427.14284323383282
 31
0.0
  0
LINE
  5
5F8F
  8
0
 10
10.0
 20
428.14284323383271
 30
0.0
 11
11.0
 21
428.14284323383271
 31
0.0
  0
LINE
  5
5F90
  8
0
 10
10.0
 20
423.14284323383271
 30
0.0
 11
11.0
 21
423.14284323383271
 31
0.0
  0
LINE
  5
5F91
  8
0
 10
10.0
 20
422.14284323383271
 30
0.0
 11
11.0
 21
422.14284323383271
 31
0.0
  0
LINE
  5
5F92
  8
0
 10
10.0
 20
425.14284323383271
 30
0.0
 11
11.0
 21
425.14284323383271
 31
0.0
  0
LINE
  5
5F93
  8
0
 10
10.0
 20
434.14284323383271
 30
0.0
 11
12.0
 21
434.14284323383271
 31
0.0
  0
LINE
  5
5F94
  8
0
 10
10.0
 20
437.14284323383271
 30
0.0
 11
11.0
 21
437.14284323383271
 31
0.0
  0
LINE
  5
5F95
  8
0
 10
10.0
 20
433.14284323383271
 30
0.0
 11
11.0
 21
433.14284323383271
 31
0.0
  0
LINE
  5
5F96
  8
0
 10
10.0
 20
432.14284323383271
 30
0.0
 11
11.0
 21
432.14284323383271
 31
0.0
  0
LINE
  5
5F97
  8
0
 10
10.0
 20
431.14284323383282
 30
0.0
 11
11.0
 21
431.14284323383282
 31
0.0
  0
LINE
  5
5F98
  8
0
 10
10.0
 20
430.14284323383271
 30
0.0
 11
11.0
 21
430.14284323383271
 31
0.0
  0
LINE
  5
5F99
  8
0
 10
10.0
 20
435.14284323383282
 30
0.0
 11
11.0
 21
435.14284323383282
 31
0.0
  0
LINE
  5
5F9A
  8
0
 10
10.0
 20
436.14284323383271
 30
0.0
 11
11.0
 21
436.14284323383271
 31
0.0
  0
LINE
  5
5F9B
  8
0
 10
10.0
 20
439.14284323383282
 30
0.0
 11
13.0
 21
439.14284323383282
 31
0.0
  0
LINE
  5
5F9C
  8
0
 10
10.0
 20
444.14284323383271
 30
0.0
 11
12.0
 21
444.14284323383271
 31
0.0
  0
LINE
  5
5F9D
  8
0
 10
10.0
 20
443.14284323383282
 30
0.0
 11
11.0
 21
443.14284323383282
 31
0.0
  0
LINE
  5
5F9E
  8
0
 10
10.0
 20
442.14284323383271
 30
0.0
 11
11.0
 21
442.14284323383271
 31
0.0
  0
LINE
  5
5F9F
  8
0
 10
10.0
 20
441.14284323383271
 30
0.0
 11
11.0
 21
441.14284323383271
 31
0.0
  0
LINE
  5
5FA0
  8
0
 10
10.0
 20
440.14284323383271
 30
0.0
 11
11.0
 21
440.14284323383271
 31
0.0
  0
LINE
  5
5FA1
  8
0
 10
10.0
 20
445.14284323383271
 30
0.0
 11
11.0
 21
445.14284323383271
 31
0.0
  0
LINE
  5
5FA2
  8
0
 10
10.0
 20
438.14284323383271
 30
0.0
 11
11.0
 21
438.14284323383271
 31
0.0
  0
LINE
  5
5FA3
  8
0
 10
10.0
 20
449.14284323383271
 30
0.0
 11
13.0
 21
449.14284323383271
 31
0.0
  0
LINE
  5
5FA4
  8
0
 10
10.0
 20
450.14284323383271
 30
0.0
 11
11.0
 21
450.14284323383271
 31
0.0
  0
LINE
  5
5FA5
  8
0
 10
10.0
 20
451.14284323383271
 30
0.0
 11
11.0
 21
451.14284323383271
 31
0.0
  0
LINE
  5
5FA6
  8
0
 10
10.0
 20
452.14284323383282
 30
0.0
 11
11.0
 21
452.14284323383282
 31
0.0
  0
LINE
  5
5FA7
  8
0
 10
10.0
 20
453.14284323383271
 30
0.0
 11
11.0
 21
453.14284323383271
 31
0.0
  0
LINE
  5
5FA8
  8
0
 10
10.0
 20
447.14284323383271
 30
0.0
 11
11.0
 21
447.14284323383271
 31
0.0
  0
LINE
  5
5FA9
  8
0
 10
10.0
 20
448.14284323383271
 30
0.0
 11
11.0
 21
448.14284323383271
 31
0.0
  0
LINE
  5
5FAA
  8
0
 10
10.0
 20
446.14284323383271
 30
0.0
 11
11.0
 21
446.14284323383271
 31
0.0
  0
TEXT
  5
5FAB
  8
0
 10
12.25
 20
461.97617656716602
 30
0.0
 40
2.5
  1
(ｍ)
 72
     1
 11
15.0
 21
461.64284323383271
 31
0.0
 73
     1
  0
LINE
  5
5FAC
  8
0
 10
10.0
 20
454.14284323383271
 30
0.0
 11
12.0
 21
454.14284323383271
 31
0.0
  0
LINE
  5
5FAD
  8
0
 10
10.0
 20
458.14284323383271
 30
0.0
 11
11.0
 21
458.14284323383271
 31
0.0
  0
LINE
  5
5FAE
  8
0
 10
10.0
 20
457.14284323383271
 30
0.0
 11
11.0
 21
457.14284323383271
 31
0.0
  0
LINE
  5
5FAF
  8
0
 10
10.0
 20
456.14284323383282
 30
0.0
 11
11.0
 21
456.14284323383282
 31
0.0
  0
LINE
  5
5FB0
  8
0
 10
10.0
 20
455.14284323383271
 30
0.0
 11
11.0
 21
455.14284323383271
 31
0.0
  0
TEXT
  5
5FB1
  8
0
 10
22.25
 20
461.97617656716602
 30
0.0
 40
2.5
  1
(ｍ)
 72
     1
 11
25.0
 21
461.64284323383271
 31
0.0
 73
     1
  0
TEXT
  5
5FB2
  8
0
 10
78.0
 20
476.54284323383268
 30
0.0
 40
3.0
  1
色　　調
  7
STANDATDT
 72
     4
 11
78.0
 21
469.64284323383271
 31
0.0
  0
TEXT
  5
5FB3
  8
0
 10
87.0
 20
476.64284323383282
 30
0.0
 40
3.0
  1
硬　　軟
  7
STANDATDT
 72
     4
 11
87.0
 21
469.64284323383271
 31
0.0
  0
LINE
  5
5FB4
  8
0
 10
106.0000008280724
 20
460.14284353417509
 30
0.0
 11
106.0000008280724
 21
479.14284353417497
 31
0.0
  0
LINE
  5
5FB5
  8
0
 10
83.0
 20
460.14284323383282
 30
0.0
 11
83.0
 21
479.14284323383271
 31
0.0
  0
LINE
  5
5FB6
  8
0
 10
73.0
 20
460.14284323383282
 30
0.0
 11
73.0
 21
479.14284323383271
 31
0.0
  0
TEXT
  5
5FB7
  8
0
 10
65.699999999999989
 20
480.54284323383268
 30
0.0
 40
3.0
  1
地　　　　　　　　　　　　　　　　　質
 72
     1
 11
99.500000000000014
 21
480.14284323383271
 31
0.0
 73
     1
  0
LINE
  5
5FB8
  8
0
 10
177.0
 20
479.14284323383271
 30
0.0
 11
251.0
 21
479.14284323383271
 31
0.0
  0
LINE
  5
5FB9
  8
0
 10
176.0
 20
460.14284323383282
 30
0.0
 11
176.0
 21
485.14284323383282
 31
0.0
  0
LINE
  5
5FBA
  8
0
 10
177.0
 20
460.14284323383282
 30
0.0
 11
177.0
 21
485.14284323383282
 31
0.0
  0
LINE
  5
5FBB
  8
0
 10
226.0
 20
460.14284323383282
 30
0.0
 11
225.9999999999998
 21
474.14284323383271
 31
0.0
  0
LINE
  5
5FBC
  8
0
 10
176.0
 20
460.14284323383282
 30
0.0
 11
176.0
 21
479.14284323383271
 31
0.0
  0
LINE
  5
5FBD
  8
0
 10
213.0
 20
474.14258316006942
 30
0.0
 11
213.0
 21
460.14258316006919
 31
0.0
  0
LINE
  5
5FBE
  8
0
 10
251.0
 20
460.14284323383282
 30
0.0
 11
251.0
 21
485.14284323383282
 31
0.0
  0
LINE
  5
5FBF
  8
0
 10
261.0
 20
460.14284323383282
 30
0.0
 11
261.0
 21
485.14284323383282
 31
0.0
  0
TEXT
  5
5FC0
  8
0
 10
16.997089773706328
 20
408.14284323383271
 30
0.0
 40
2.0
  1
5
 72
     2
 11
18.330423107039671
 21
409.14284323383271
 31
0.0
 73
     2
  0
TEXT
  5
5FC1
  8
0
 10
16.997089773706328
 20
418.14284323383271
 30
0.0
 40
2.0
  1
4
 72
     2
 11
18.330423107039671
 21
419.14284323383271
 31
0.0
 73
     2
  0
TEXT
  5
5FC2
  8
0
 10
16.997089773706328
 20
428.14284323383271
 30
0.0
 40
2.0
  1
3
 72
     2
 11
18.330423107039671
 21
429.14284323383271
 31
0.0
 73
     2
  0
TEXT
  5
5FC3
  8
0
 10
16.997089773706328
 20
438.14284323383271
 30
0.0
 40
2.0
  1
2
 72
     2
 11
18.330423107039671
 21
439.14284323383282
 31
0.0
 73
     2
  0
TEXT
  5
5FC4
  8
0
 10
17.663756440373
 20
448.14284323383271
 30
0.0
 40
2.0
  1
1
 72
     2
 11
18.330423107039671
 21
449.14284323383271
 31
0.0
 73
     2
  0
TEXT
  5
5FC5
  8
0
 10
16.997089773706328
 20
398.14284323383271
 30
0.0
 40
2.0
  1
6
 72
     2
 11
18.330423107039671
 21
399.14284323383271
 31
0.0
 73
     2
  0
TEXT
  5
5FC6
  8
0
 10
16.997089773706328
 20
388.14284323383271
 30
0.0
 40
2.0
  1
7
 72
     2
 11
18.330423107039671
 21
389.14284323383271
 31
0.0
 73
     2
  0
TEXT
  5
5FC7
  8
0
 10
16.997089773706328
 20
378.14284323383271
 30
0.0
 40
2.0
  1
8
 72
     2
 11
18.330423107039671
 21
379.14284323383271
 31
0.0
 73
     2
  0
TEXT
  5
5FC8
  8
0
 10
16.997089773706328
 20
368.14284323383271
 30
0.0
 40
2.0
  1
9
 72
     2
 11
18.330423107039671
 21
369.14284323383271
 31
0.0
 73
     2
  0
TEXT
  5
5FC9
  8
0
 10
15.99708977370633
 20
358.14284323383271
 30
0.0
 40
2.0
  1
10
 72
     2
 11
18.330423107039671
 21
359.14284323383271
 31
0.0
 73
     2
  0
TEXT
  5
5FCA
  8
0
 10
198.4568925256375
 20
512.39284298949269
 30
0.0
 40
3.5
  1
～
 11
198.4568925256375
 21
514.14284298949269
 31
0.0
 73
     2
  0
LINE
  5
5FCB
  8
0
 10
231.0
 20
460.14284323383282
 30
0.0
 11
231.0
 21
474.14284323383271
 31
0.0
  0
LINE
  5
5FCC
  8
0
 10
256.0
 20
460.14284323383282
 30
0.0
 11
256.0
 21
485.14284323383282
 31
0.0
  0
LINE
  5
5FCD
  8
0
 10
50.0
 20
460.14284323383282
 30
0.0
 11
50.0
 21
479.14284323383271
 31
0.0
  0
LINE
  5
5FCE
  8
0
 10
205.0
 20
474.14258316006942
 30
0.0
 11
205.0
 21
460.14258316006919
 31
0.0
  0
LINE
  5
5FCF
  8
0
 10
197.0
 20
474.14284323383271
 30
0.0
 11
241.0
 21
474.14284323383271
 31
0.0
  0
TEXT
  5
5FD0
  8
0
 10
98.540399734216635
 20
476.64284353417497
 30
0.0
 40
3.0
  1
風　　化
  7
STANDATDT
 72
     4
 11
98.540399734216635
 21
469.64284353417509
 31
0.0
  0
TEXT
  5
5FD1
  8
0
 10
93.540399734216635
 20
476.84284353417507
 30
0.0
 40
3.0
  1
コア形状
  7
STANDATDT
 72
     4
 11
93.540399734216635
 21
469.64284353417509
 31
0.0
  0
LINE
  5
5FD2
  8
0
 10
96.000000828072416
 20
460.14284353417509
 30
0.0
 11
96.000000828072416
 21
479.14284353417497
 31
0.0
  0
LINE
  5
5FD3
  8
0
 10
91.000000828072416
 20
460.14284353417509
 30
0.0
 11
91.000000828072416
 21
479.14284353417497
 31
0.0
  0
TEXT
  5
5FD4
  8
0
 10
103.54039973421661
 20
476.54284353417512
 30
0.0
 40
3.0
  1
変　　質
  7
STANDATDT
 72
     4
 11
103.54039973421661
 21
469.64284353417509
 31
0.0
  0
LINE
  5
5FD5
  8
0
 10
101.0000008280724
 20
460.14284353417509
 30
0.0
 11
101.0000008280724
 21
479.14284353417497
 31
0.0
  0
LINE
  5
5FD6
  8
0
 10
187.0
 20
460.14284323383282
 30
0.0
 11
187.0
 21
479.14284323383271
 31
0.0
  0
LINE
  5
5FD7
  8
0
 10
197.0
 20
460.14284323383282
 30
0.0
 11
197.0
 21
479.14284323383271
 31
0.0
  0
LINE
  5
5FD8
  8
0
 10
221.0
 20
460.14284323383282
 30
0.0
 11
220.99999999999989
 21
479.14284323383271
 31
0.0
  0
TEXT
  5
5FD9
  8
0
 10
161.33333333333329
 20
471.11759858999199
 30
0.0
 40
2.5
  1
貫入試験
 72
     1
 11
167.0
 21
470.78426525665873
 31
0.0
 73
     1
  0
TEXT
  5
5FDA
  8
0
 10
161.33333333333329
 20
474.70152179302539
 30
0.0
 40
2.5
  1
標　　準
 72
     1
 11
167.0
 21
474.36818845969208
 31
0.0
 73
     1
  0
LINE
  5
5FDB
  8
0
 10
158.0
 20
469.14284353417509
 30
0.0
 11
176.0
 21
469.14284353417509
 31
0.0
  0
TEXT
  5
5FDC
  8
0
 10
156.10491679478719
 20
476.94153193599527
 30
0.0
 40
3.0
  1
コ　ア
  7
STANDATDT
 72
     4
 11
156.10491679478719
 21
471.6415319359952
 31
0.0
  0
TEXT
  5
5FDD
  8
0
 10
151.96766895965641
 20
476.74153193599528
 30
0.0
 40
3.0
  1
採取率
  7
STANDATDT
 72
     4
 11
151.96766895965641
 21
471.6415319359952
 31
0.0
  0
LINE
  5
5FDE
  8
0
 10
150.00000082807239
 20
460.14284353417509
 30
0.0
 11
150.00000082807239
 21
479.14284353417497
 31
0.0
  0
TEXT
  5
5FDF
  8
0
 10
151.25000082807239
 20
461.10356578662783
 30
0.0
 40
2.5
  1
(％)
 72
     1
 11
154.00000082807239
 21
460.77023245329451
 31
0.0
 73
     1
  0
LINE
  5
5FE0
  8
0
 10
158.00000082807239
 20
460.14284353417509
 30
0.0
 11
158.00000082807239
 21
479.14284353417497
 31
0.0
  0
LINE
  5
5FE1
  8
0
 10
158.00000082807239
 20
460.14284353417509
 30
0.0
 11
158.00000082807239
 21
479.14284353417497
 31
0.0
  0
TEXT
  5
5FE2
  8
0
 10
164.5
 20
468.04284353417512
 30
0.0
 40
3.0
  1
区間
  7
STANDATDT
 72
     4
 11
164.5
 21
464.64284353417509
 31
0.0
  0
TEXT
  5
5FE3
  8
0
 10
173.5
 20
468.04284353417512
 30
0.0
 40
3.0
  1
Ｎ値
  7
STANDATDT
 72
     4
 11
173.5
 21
464.64284353417509
 31
0.0
  0
LINE
  5
5FE4
  8
0
 10
171.0
 20
460.14284353417509
 30
0.0
 11
171.0
 21
469.14284353417509
 31
0.0
  0
TEXT
  5
5FE5
  8
0
 10
109.6605321241933
 20
494.56684323774078
 30
0.0
 40
1.8
  1
90゜
 72
     1
 11
111.5505321241933
 21
495.4668432377407
 31
0.0
 73
     2
  0
TEXT
  5
5FE6
  8
0
 10
101.5833333333333
 20
520.89284323383276
 30
0.0
 40
2.5
  1
調査位置
 72
     1
 11
107.25
 21
522.14284323383265
 31
0.0
 73
     2
  0
TEXT
  5
5FE7
  8
0
 10
101.5833333333333
 20
504.89284323383271
 30
0.0
 40
2.5
  1
主任技師
 72
     1
 11
107.25
 21
506.14284323383282
 31
0.0
 73
     2
  0
POLYLINE
  5
5FE8
  8
0
 66
     1
 10
0.0
 20
0.0
 30
0.0
 70
     1
  0
VERTEX
  5
6AB4
  8
0
 10
288.0
 20
486.14284323383271
 30
0.0
  0
VERTEX
  5
6AB5
  8
0
 10
10.0
 20
486.14284323383271
 30
0.0
  0
VERTEX
  5
6AB6
  8
0
 10
10.0
 20
526.14284323383265
 30
0.0
  0
VERTEX
  5
6AB7
  8
0
 10
288.0
 20
526.14284323383265
 30
0.0
  0
SEQEND
  5
6AB8
  8
0
  0
LINE
  5
5FEE
  8
0
 10
52.0
 20
538.64284323383265
 30
0.0
 11
207.0
 21
538.64284323383265
 31
0.0
  0
LINE
  5
5FEF
  8
0
 10
52.0
 20
528.14284323383265
 30
0.0
 11
207.0
 21
528.14284323383265
 31
0.0
  0
LINE
  5
5FF0
  8
0
 10
10.0
 20
502.14284323383282
 30
0.0
 11
288.0
 21
502.14284323383282
 31
0.0
  0
LINE
  5
5FF1
  8
0
 10
10.0
 20
510.14284323383282
 30
0.0
 11
288.0
 21
510.14284323383282
 31
0.0
  0
LINE
  5
5FF2
  8
0
 10
10.0
 20
518.14284323383276
 30
0.0
 11
288.0
 21
518.14284323383276
 31
0.0
  0
LINE
  5
5FF3
  8
0
 10
103.2499999999999
 20
494.14284323383271
 30
0.0
 11
103.2499999999999
 21
488.43822582833252
 31
0.0
  0
TEXT
  5
5FF4
  8
0
 10
104.5291707453859
 20
487.38741075987889
 30
0.0
 40
1.8
  1
南
 72
     1
 11
105.3691707453859
 21
488.28741075987881
 31
0.0
 73
     2
  0
TEXT
  5
5FF5
  8
0
 10
98.683980293036015
 20
487.38741075987889
 30
0.0
 40
1.8
  1
180゜
 72
     1
 11
101.173980293036
 21
488.28741075987881
 31
0.0
 73
     2
  0
LINE
  5
5FF6
  8
0
 10
93.0
 20
486.14284323383271
 30
0.0
 11
93.0
 21
502.14284323383282
 31
0.0
  0
LINE
  5
5FF7
  8
0
 10
85.0
 20
486.14284323383271
 30
0.0
 11
85.0
 21
502.14284323383282
 31
0.0
  0
TEXT
  5
5FF8
  8
0
 10
89.0
 20
499.89284323383282
 30
0.0
 40
2.5
  1
方　　向
  7
STANDATDT
 72
     1
 11
89.0
 21
494.14284323383271
 31
0.0
 73
     2
  0
TEXT
  5
5FF9
  8
0
 10
74.455926910257062
 20
486.92997077119799
 30
0.0
 40
1.8
  1
0゜
 72
     1
 11
75.445926910257043
 21
487.82997077119791
 31
0.0
 73
     2
  0
LINE
  5
5FFA
  8
0
 10
75.500000223754114
 20
494.14284323383271
 30
0.0
 11
75.500000223754114
 21
488.43822582833252
 31
0.0
  0
LINE
  5
5FFB
  8
0
 10
69.0
 20
486.14284323383271
 30
0.0
 11
69.0
 21
502.14284323383282
 31
0.0
  0
TEXT
  5
5FFC
  8
0
 10
64.5
 20
499.89284323383282
 30
0.0
 40
2.5
  1
角　　度
  7
STANDATDT
 72
     1
 11
64.5
 21
494.14284323383271
 31
0.0
 73
     2
  0
TEXT
  5
5FFD
  8
0
 10
55.54753692108374
 20
488.76387996570281
 30
0.0
 40
3.0
  1
m
 72
     1
 11
56.547536921083747
 21
490.26387996570293
 31
0.0
 73
     2
  0
LINE
  5
5FFE
  8
0
 10
60.0
 20
486.14284323383271
 30
0.0
 11
60.0
 21
502.14284323383282
 31
0.0
  0
LINE
  5
5FFF
  8
0
 10
36.0
 20
486.14284323383271
 30
0.0
 11
36.0
 21
526.14284323383265
 31
0.0
  0
TEXT
  5
6000
  8
0
 10
12.83333333333333
 20
488.89284323383271
 30
0.0
 40
2.5
  1
総　掘　進　長
 72
     1
 11
23.0
 21
490.14284323383271
 31
0.0
 73
     2
  0
TEXT
  5
6001
  8
0
 10
16.4163855562417
 20
520.89284323383276
 30
0.0
 40
2.5
  1
ー
 72
     1
 11
17.583052222908371
 21
522.14284323383265
 31
0.0
 73
     2
  0
TEXT
  5
6002
  8
0
 10
12.916666666666661
 20
512.89284323383265
 30
0.0
 40
2.5
  1
発  注  機  関
 72
     1
 11
23.0
 21
514.14284323383276
 31
0.0
 73
     2
  0
TEXT
  5
6003
  8
0
 10
12.83333333333333
 20
496.89284323383271
 30
0.0
 40
2.5
  1
孔  口  標  高
 72
     1
 11
23.0
 21
498.14284323383271
 31
0.0
 73
     2
  0
TEXT
  5
6004
  8
0
 10
12.916666666666661
 20
504.89284323383271
 30
0.0
 40
2.5
  1
調 査 業 者 名
 72
     1
 11
23.0
 21
506.14284323383282
 31
0.0
 73
     2
  0
LINE
  5
6005
  8
0
 10
10.0
 20
494.14284323383271
 30
0.0
 11
60.0
 21
494.14284323383271
 31
0.0
  0
TEXT
  5
6006
  8
0
 10
12.44609981837675
 20
520.89284323383276
 30
0.0
 40
2.5
  1
ボ
 72
     1
 11
13.69609981837675
 21
522.14284323383265
 31
0.0
 73
     2
  0
TEXT
  5
6007
  8
0
 10
50.39173740336728
 20
503.23615334216538
 30
0.0
 40
2.0
  1
（          　  　　　　　   ）
 72
     1
 11
68.658404070033953
 21
504.23615334216538
 31
0.0
 73
     2
  0
TEXT
  5
6008
  8
0
 10
55.241122999872083
 20
530.35987386610429
 30
0.0
 40
4.0
  1
事業・工事名
 72
     1
 11
68.97445633320541
 21
532.35987386610429
 31
0.0
 73
     2
  0
TEXT
  5
6009
  8
0
 10
55.241122999872083
 20
540.85987386610429
 30
0.0
 40
4.0
  1
調   査   名
 72
     1
 11
68.97445633320541
 21
542.85987386610441
 31
0.0
 73
     2
  0
TEXT
  5
600A
  8
0
 10
27.910576103169898
 20
520.89284323383276
 30
0.0
 40
2.5
  1
グ
 72
     1
 11
29.24390943650323
 21
522.14284323383265
 31
0.0
 73
     2
  0
TEXT
  5
600B
  8
0
 10
32.047528507701507
 20
520.89284323383276
 30
0.0
 40
2.5
  1
名
 72
     1
 11
33.13086184103485
 21
522.14284323383265
 31
0.0
 73
     2
  0
TEXT
  5
600C
  8
0
 10
24.1069570319716
 20
520.89284323383276
 30
0.0
 40
2.5
  1
ン
 72
     1
 11
25.3569570319716
 21
522.14284323383265
 31
0.0
 73
     2
  0
TEXT
  5
600D
  8
0
 10
20.30333796077332
 20
520.89284323383276
 30
0.0
 40
2.5
  1
リ
 72
     1
 11
21.470004627439991
 21
522.14284323383265
 31
0.0
 73
     2
  0
TEXT
  5
600E
  8
0
 10
43.956225062303801
 20
503.23615334216538
 30
0.0
 40
2.0
  1
電話
 72
     1
 11
46.089558395637141
 21
504.23615334216538
 31
0.0
 73
     2
  0
TEXT
  5
600F
  8
0
 10
55.54753692108374
 20
496.76387996570281
 30
0.0
 40
3.0
  1
m
 72
     1
 11
56.547536921083747
 21
498.26387996570293
 31
0.0
 73
     2
  0
LINE
  5
6010
  8
0
 10
99.0
 20
526.14284323383265
 30
0.0
 11
99.0
 21
518.14284323383276
 31
0.0
  0
TEXT
  5
6011
  8
0
 10
72.311722501059194
 20
500.09031978653309
 30
0.0
 40
1.8
  1
180゜
 72
     1
 11
74.801722501059203
 21
500.99031978653312
 31
0.0
 73
     2
  0
LINE
  5
6012
  8
0
 10
75.500000223754114
 20
494.14284323383271
 30
0.0
 11
81.204617629254344
 21
494.14284323383271
 31
0.0
  0
ARC
  5
6013
  8
0
 10
75.500000223754114
 20
494.14284323383271
 30
0.0
 40
4.5
 50
270.0
 51
90.0
  0
LINE
  5
6014
  8
0
 10
75.500000223754114
 20
494.14284323383271
 30
0.0
 11
75.500000223754114
 21
499.84746063933289
 31
0.0
  0
TEXT
  5
6015
  8
0
 10
72.777047559151612
 20
496.0155682500623
 30
0.0
 40
1.8
  1
上
 72
     1
 11
73.617047559151615
 21
496.91556825006228
 31
0.0
 73
     2
  0
TEXT
  5
6016
  8
0
 10
72.777047559151612
 20
491.32225846920642
 30
0.0
 40
1.8
  1
下
 72
     1
 11
73.617047559151615
 21
492.22225846920639
 31
0.0
 73
     2
  0
TEXT
  5
6017
  8
0
 10
81.287348056396567
 20
495.04527913802127
 30
0.0
 40
1.8
  1
90゜
 72
     1
 11
83.177348056396568
 21
495.94527913802119
 31
0.0
 73
     2
  0
LINE
  5
6018
  8
0
 10
99.0
 20
510.14284323383282
 30
0.0
 11
99.0
 21
502.14284323383282
 31
0.0
  0
TEXT
  5
6019
  8
0
 10
100.6249312824494
 20
499.58493088944562
 30
0.0
 40
1.8
  1
北
 72
     1
 11
101.4649312824493
 21
500.48493088944559
 31
0.0
 73
     2
  0
LINE
  5
601A
  8
0
 10
103.2499999999999
 20
494.14284323383271
 30
0.0
 11
97.545382594499856
 21
494.14284323383271
 31
0.0
  0
CIRCLE
  5
601B
  8
0
 10
103.2499999999999
 20
494.14284323383271
 30
0.0
 40
4.5
  0
TEXT
  5
601C
  8
0
 10
95.105309771431308
 20
491.94509841919518
 30
0.0
 40
1.8
  1
西
 72
     1
 11
95.945309771431312
 21
492.8450984191951
 31
0.0
 73
     2
  0
TEXT
  5
601D
  8
0
 10
94.067334022075286
 20
494.56684323774078
 30
0.0
 40
1.8
  1
270゜
 72
     1
 11
96.857334022075307
 21
495.4668432377407
 31
0.0
 73
     2
  0
LINE
  5
601E
  8
0
 10
103.2499999999999
 20
494.14284323383271
 30
0.0
 11
103.2499999999999
 21
499.84746063933289
 31
0.0
  0
LINE
  5
601F
  8
0
 10
103.2499999999999
 20
494.14284323383271
 30
0.0
 11
108.9546174055
 21
494.14284323383271
 31
0.0
  0
TEXT
  5
6020
  8
0
 10
109.4269034460918
 20
491.94509841919518
 30
0.0
 40
1.8
  1
東
 72
     1
 11
110.2669034460919
 21
492.8450984191951
 31
0.0
 73
     2
  0
TEXT
  5
6021
  8
0
 10
105.9118367462349
 20
499.50195563590552
 30
0.0
 40
1.8
  1
0゜
 72
     1
 11
106.90183674623491
 21
500.40195563590549
 31
0.0
 73
     2
  0
LINE
  5
6022
  8
0
 10
237.0
 20
502.14284323383282
 30
0.0
 11
237.0
 21
486.14284323383271
 31
0.0
  0
LINE
  5
6023
  8
0
 10
220.0
 20
502.14284323383282
 30
0.0
 11
220.0
 21
486.14284323383271
 31
0.0
  0
TEXT
  5
6024
  8
0
 10
222.75
 20
488.89284323383271
 30
0.0
 40
2.5
  1
ポ ン プ
 72
     1
 11
228.5
 21
490.14284323383271
 31
0.0
 73
     2
  0
LINE
  5
6025
  8
0
 10
162.5
 20
486.14284323383271
 30
0.0
 11
162.5
 21
518.14284323383276
 31
0.0
  0
TEXT
  5
6026
  8
0
 10
141.5
 20
499.89284323383282
 30
0.0
 40
2.5
  1
使用機種
  7
STANDATDT
 72
     1
 11
141.5
 21
494.14284323383271
 31
0.0
 73
     2
  0
LINE
  5
6027
  8
0
 10
145.5
 20
486.14284323383271
 30
0.0
 11
145.5
 21
518.14284323383276
 31
0.0
  0
TEXT
  5
6028
  8
0
 10
148.33333333333329
 20
488.89284323383271
 30
0.0
 40
2.5
  1
エンジン
 72
     1
 11
154.0
 21
490.14284323383271
 31
0.0
 73
     2
  0
LINE
  5
6029
  8
0
 10
137.5
 20
486.14284323383271
 30
0.0
 11
137.5
 21
502.14284323383282
 31
0.0
  0
TEXT
  5
602A
  8
0
 10
126.0157017748582
 20
488.74306118514261
 30
0.0
 40
1.8
  1
90゜
 72
     1
 11
127.9057017748582
 21
489.64306118514259
 31
0.0
 73
     2
  0
LINE
  5
602B
  8
0
 10
121.5
 20
486.14284323383271
 30
0.0
 11
121.5
 21
502.14284323383282
 31
0.0
  0
TEXT
  5
602C
  8
0
 10
117.5
 20
499.89284323383282
 30
0.0
 40
2.5
  1
地盤勾配
  7
STANDATDT
 72
     1
 11
117.5
 21
494.14284323383271
 31
0.0
 73
     2
  0
LINE
  5
602D
  8
0
 10
113.5
 20
486.14284323383271
 30
0.0
 11
113.5
 21
502.14284323383282
 31
0.0
  0
TEXT
  5
602E
  8
0
 10
194.7499999999998
 20
506.39284323383271
 30
0.0
 40
2.5
  1
コ　　ア
 72
     1
 11
200.49999999999989
 21
507.64284323383271
 31
0.0
 73
     2
  0
TEXT
  5
602F
  8
0
 10
194.8333333333332
 20
503.39284323383271
 30
0.0
 40
2.5
  1
鑑 定 者
 72
     1
 11
200.49999999999989
 21
504.64284323383271
 31
0.0
 73
     2
  0
LINE
  5
6030
  8
0
 10
145.5
 20
494.14284323383271
 30
0.0
 11
288.0
 21
494.14284323383271
 31
0.0
  0
TEXT
  5
6031
  8
0
 10
125.1666666666666
 20
553.24953306437646
 30
0.0
 40
5.0
  1
ボーリング柱状図
 72
     1
 11
148.5
 21
555.74953306437646
 31
0.0
 73
     2
  0
TEXT
  5
6032
  8
0
 10
148.33333333333329
 20
496.89284323383271
 30
0.0
 40
2.5
  1
試 錐 機
 72
     1
 11
154.0
 21
498.14284323383271
 31
0.0
 73
     2
  0
TEXT
  5
6033
  8
0
 10
148.33333333333329
 20
503.39284323383271
 30
0.0
 40
2.5
  1
代 理 人
 72
     1
 11
154.0
 21
504.64284323383271
 31
0.0
 73
     2
  0
TEXT
  5
6034
  8
0
 10
148.33333333333329
 20
506.39284323383271
 30
0.0
 40
2.5
  1
現　　場
 72
     1
 11
154.0
 21
507.64284323383271
 31
0.0
 73
     2
  0
TEXT
  5
6035
  8
0
 10
148.4166666666666
 20
512.89284323383265
 30
0.0
 40
2.5
  1
調査期間
 72
     1
 11
154.0
 21
514.14284323383276
 31
0.0
 73
     2
  0
LINE
  5
6036
  8
0
 10
115.5
 20
526.14284323383265
 30
0.0
 11
115.5
 21
518.14284323383276
 31
0.0
  0
TEXT
  5
6037
  8
0
 10
133.8597423266454
 20
496.30922078326802
 30
0.0
 40
1.8
  1
0゜
 72
     1
 11
134.8497423266455
 21
497.20922078326799
 31
0.0
 73
     2
  0
LINE
  5
6038
  8
0
 10
115.5
 20
510.14284323383282
 30
0.0
 11
115.5
 21
502.14284323383282
 31
0.0
  0
TEXT
  5
6039
  8
0
 10
124.53747192386921
 20
496.64595332638493
 30
0.0
 40
1.8
  1
鉛直
  7
STANDATDT
 72
     1
 11
124.53747192386921
 21
494.66595332638491
 31
0.0
 73
     2
  0
TEXT
  5
603A
  8
0
 10
127.9442777811494
 20
497.59242502991788
 30
0.0
 40
1.8
  1
水平
 72
     1
 11
129.86427778114941
 21
498.49242502991791
 31
0.0
 73
     2
  0
ARC
  5
603B
  8
0
 10
126.4999842828087
 20
496.92718685573158
 30
0.0
 40
4.5
 50
270.0
 51
0.0
  0
LINE
  5
603C
  8
0
 10
126.4999842828087
 20
496.92718685573158
 30
0.0
 11
132.20460168830891
 21
496.92718685573158
 31
0.0
  0
LINE
  5
603D
  8
0
 10
126.4999842828087
 20
496.92718685573158
 30
0.0
 11
126.4999842828087
 21
491.2225694502315
 31
0.0
  0
LINE
  5
603E
  8
0
 10
192.5
 20
502.14284323383282
 30
0.0
 11
192.5
 21
510.14284323383282
 31
0.0
  0
TEXT
  5
603F
  8
0
 10
242.33333333333329
 20
506.39284323383271
 30
0.0
 40
2.5
  1
ボーリン
 72
     1
 11
248.0
 21
507.64284323383271
 31
0.0
 73
     2
  0
TEXT
  5
6040
  8
0
 10
242.1666666666666
 20
503.39284323383271
 30
0.0
 40
2.5
  1
グ責任者
 72
     1
 11
248.0
 21
504.64284323383271
 31
0.0
 73
     2
  0
TEXT
  5
6041
  8
0
 10
242.33333333333329
 20
512.89284323383265
 30
0.0
 40
2.5
  1
東　　経
 72
     1
 11
248.0
 21
514.14284323383276
 31
0.0
 73
     2
  0
TEXT
  5
6042
  8
0
 10
242.33333333333329
 20
520.89284323383276
 30
0.0
 40
2.5
  1
北　　緯
 72
     1
 11
248.0
 21
522.14284323383265
 31
0.0
 73
     2
  0
POLYLINE
  5
6043
  8
0
 66
     1
 10
0.0
 20
0.0
 30
0.0
 70
     1
  0
VERTEX
  5
6AB9
  8
0
 10
288.0
 20
535.14284323383276
 30
0.0
  0
VERTEX
  5
6ABA
  8
0
 10
224.0
 20
535.14284323383276
 30
0.0
  0
VERTEX
  5
6ABB
  8
0
 10
224.0
 20
543.64284323383276
 30
0.0
  0
VERTEX
  5
6ABC
  8
0
 10
288.0
 20
543.64284323383276
 30
0.0
  0
SEQEND
  5
6ABD
  8
0
  0
LINE
  5
6049
  8
0
 10
239.5
 20
526.14284323383265
 30
0.0
 11
239.5
 21
502.14284323383282
 31
0.0
  0
TEXT
  5
604A
  8
0
 10
222.9166666666666
 20
498.39284323383271
 30
0.0
 40
2.5
  1
ハンマー
 72
     1
 11
228.5
 21
499.64284323383271
 31
0.0
 73
     2
  0
TEXT
  5
604B
  8
0
 10
222.83333333333329
 20
495.39284323383282
 30
0.0
 40
2.5
  1
落下用具
 72
     1
 11
228.5
 21
496.64284323383271
 31
0.0
 73
     2
  0
LINE
  5
604C
  8
0
 10
209.0
 20
502.14284323383282
 30
0.0
 11
209.0
 21
510.14284323383282
 31
0.0
  0
TEXT
  5
604D
  8
0
 10
227.22290107282211
 20
527.17822411474015
 30
0.0
 40
2.0
  1
シートNo.
 72
     1
 11
232.82290107282211
 21
528.17822411474026
 31
0.0
 73
     2
  0
TEXT
  5
604E
  8
0
 10
226.0
 20
538.39284323383265
 30
0.0
 40
2.0
  1
ボーリングNo.
 72
     1
 11
234.0
 21
539.39284323383265
 31
0.0
 73
     2
  0
LINE
  5
604F
  8
0
 10
252.0
 20
543.64284323383276
 30
0.0
 11
252.0
 21
535.14284323383276
 31
0.0
  0
LINE
  5
6050
  8
0
 10
248.0
 20
543.64284323383276
 30
0.0
 11
248.0
 21
535.14284323383276
 31
0.0
  0
LINE
  5
6051
  8
0
 10
244.0
 20
543.64284323383276
 30
0.0
 11
244.0
 21
535.14284323383276
 31
0.0
  0
LINE
  5
6052
  8
0
 10
256.49999999999989
 20
526.14284323383265
 30
0.0
 11
256.49999999999989
 21
502.14284323383282
 31
0.0
  0
LINE
  5
6053
  8
0
 10
276.0
 20
543.64284323383276
 30
0.0
 11
276.0
 21
535.14284323383276
 31
0.0
  0
LINE
  5
6054
  8
0
 10
272.0
 20
543.64284323383276
 30
0.0
 11
272.0
 21
535.14284323383276
 31
0.0
  0
LINE
  5
6055
  8
0
 10
268.0
 20
543.64284323383276
 30
0.0
 11
268.0
 21
535.14284323383276
 31
0.0
  0
LINE
  5
6056
  8
0
 10
264.0
 20
543.64284323383276
 30
0.0
 11
264.0
 21
535.14284323383276
 31
0.0
  0
LINE
  5
6057
  8
0
 10
260.0
 20
543.64284323383276
 30
0.0
 11
260.0
 21
535.14284323383276
 31
0.0
  0
LINE
  5
6058
  8
0
 10
256.0
 20
543.64284323383276
 30
0.0
 11
256.0
 21
535.14284323383276
 31
0.0
  0
LINE
  5
6059
  8
0
 10
284.0
 20
543.64284323383276
 30
0.0
 11
284.0
 21
535.14284323383276
 31
0.0
  0
LINE
  5
605A
  8
0
 10
280.0
 20
543.64284323383276
 30
0.0
 11
280.0
 21
535.14284323383276
 31
0.0
  0
LINE
  5
605B
  8
0
 10
241.0
 20
460.14284323383282
 30
0.0
 11
241.0
 21
479.14284323383271
 31
0.0
  0
LINE
  5
605C
  8
0
 10
251.0
 20
460.14284323383282
 30
0.0
 11
251.0
 21
479.14284323383271
 31
0.0
  0
LINE
  5
605D
  8
0
 10
73.000000000000028
 20
159.14284323383271
 30
0.0
 11
73.0
 21
459.14284323383271
 31
0.0
  0
LINE
  5
605E
  8
0
 10
50.000000000000071
 20
159.14284323383271
 30
0.0
 11
50.0
 21
459.14284323383271
 31
0.0
  0
LINE
  5
605F
  8
0
 10
40.0
 20
159.14284323383271
 30
0.0
 11
40.0
 21
459.14284323383271
 31
0.0
  0
LINE
  5
6060
  8
0
 10
30.0
 20
159.14284323383271
 30
0.0
 11
30.0
 21
459.14284323383271
 31
0.0
  0
LINE
  5
6061
  8
0
 10
20.0
 20
159.14284323383271
 30
0.0
 11
20.0
 21
459.14284323383271
 31
0.0
  0
LINE
  5
6062
  8
0
 10
83.000000000000014
 20
159.14284323383271
 30
0.0
 11
83.0
 21
459.14284323383271
 31
0.0
  0
LINE
  5
6063
  8
0
 10
91.000000828072416
 20
159.14284323383271
 30
0.0
 11
91.000000828072416
 21
459.14284353417492
 31
0.0
  0
LINE
  5
6064
  8
0
 10
96.000000828072359
 20
159.14284323383271
 30
0.0
 11
96.000000828072416
 21
459.14284353417492
 31
0.0
  0
LINE
  5
6065
  8
0
 10
101.0000008280723
 20
159.14284323383271
 30
0.0
 11
101.0000008280724
 21
459.14284353417492
 31
0.0
  0
LINE
  5
6066
  8
0
 10
106.0000008280723
 20
159.14284323383271
 30
0.0
 11
106.0000008280724
 21
459.14284353417492
 31
0.0
  0
LINE
  5
6067
  8
0
 10
150.00000082807239
 20
159.14284323383271
 30
0.0
 11
150.00000082807239
 21
459.14284353417492
 31
0.0
  0
LINE
  5
6068
  8
0
 10
158.0000008280725
 20
159.14284323383271
 30
0.0
 11
158.00000082807239
 21
459.14284353417492
 31
0.0
  0
LINE
  5
6069
  8
0
 10
170.9999999999998
 20
159.14284323383271
 30
0.0
 11
171.0
 21
459.14284353417492
 31
0.0
  0
LINE
  5
606A
  8
0
 10
176.0
 20
159.14284323383271
 30
0.0
 11
176.0
 21
459.14284323383271
 31
0.0
  0
LINE
  5
606B
  8
0
 10
176.99999999999969
 20
159.14284323383271
 30
0.0
 11
177.0
 21
459.14284323383271
 31
0.0
  0
LINE
  5
606C
  8
0
 10
186.99999999999989
 20
159.14284323383271
 30
0.0
 11
187.0
 21
459.14284323383271
 31
0.0
  0
LINE
  5
606D
  8
0
 10
196.99999999999969
 20
159.14284323383271
 30
0.0
 11
197.0
 21
459.14284323383271
 31
0.0
  0
LINE
  5
606E
  8
0
 10
205.0
 20
159.14284323383271
 30
0.0
 11
205.0
 21
459.14258316006942
 31
0.0
  0
LINE
  5
606F
  8
0
 10
213.0
 20
159.14284323383271
 30
0.0
 11
213.0
 21
459.14258316006942
 31
0.0
  0
LINE
  5
6070
  8
0
 10
220.9999999999998
 20
159.14284323383279
 30
0.0
 11
221.0
 21
459.14258316006942
 31
0.0
  0
LINE
  5
6071
  8
0
 10
225.9999999999998
 20
159.14284323383279
 30
0.0
 11
226.0
 21
459.14258316006942
 31
0.0
  0
LINE
  5
6072
  8
0
 10
230.9999999999998
 20
159.14284323383279
 30
0.0
 11
231.0
 21
459.14284323383271
 31
0.0
  0
LINE
  5
6073
  8
0
 10
241.00000000000011
 20
159.14284323383279
 30
0.0
 11
241.0
 21
459.14284323383271
 31
0.0
  0
LINE
  5
6075
  8
0
 10
251.0000000000002
 20
159.14284323383279
 30
0.0
 11
251.0
 21
459.14284323383271
 31
0.0
  0
LINE
  5
6076
  8
0
 10
256.0
 20
159.14284323383279
 30
0.0
 11
256.0
 21
459.14284323383271
 31
0.0
  0
LINE
  5
6077
  8
0
 10
261.00000000000023
 20
159.14284323383279
 30
0.0
 11
261.0
 21
459.14284323383271
 31
0.0
  0
POLYLINE
  5
6078
  8
0
 66
     1
 10
0.0
 20
0.0
 30
0.0
 70
     1
  0
VERTEX
  5
6ABE
  8
0
 10
297.0
 20
0.0
 30
0.0
  0
VERTEX
  5
6ABF
  8
0
 10
297.0
 20
575.32064812713588
 30
0.0
  0
VERTEX
  5
6AC0
  8
0
 10
0.0
 20
575.32064812713588
 30
0.0
  0
VERTEX
  5
6AC1
  8
0
 10
0.0
 20
0.0
 30
0.0
  0
SEQEND
  5
6AC2
  8
0
  0
TEXT
  5
607E
  8
0
 10
15.663756440373
 20
268.14284323383271
 30
0.0
 40
2.0
  1
19
 72
     2
 11
18.330423107039671
 21
269.14284323383271
 31
0.0
 73
     2
  0
LINE
  5
607F
  8
0
 10
10.0
 20
259.14284323383259
 30
0.0
 11
13.0
 21
259.14284323383259
 31
0.0
  0
LINE
  5
6080
  8
0
 10
10.0
 20
260.14284323383271
 30
0.0
 11
11.0
 21
260.14284323383271
 31
0.0
  0
LINE
  5
6081
  8
0
 10
10.0
 20
269.14284323383271
 30
0.0
 11
13.0
 21
269.14284323383271
 31
0.0
  0
LINE
  5
6082
  8
0
 10
10.0
 20
268.14284323383271
 30
0.0
 11
11.0
 21
268.14284323383271
 31
0.0
  0
LINE
  5
6083
  8
0
 10
10.0
 20
267.14284323383271
 30
0.0
 11
11.0
 21
267.14284323383271
 31
0.0
  0
LINE
  5
6084
  8
0
 10
10.0
 20
266.14284323383271
 30
0.0
 11
11.0
 21
266.14284323383271
 31
0.0
  0
LINE
  5
6085
  8
0
 10
10.0
 20
265.14284323383271
 30
0.0
 11
11.0
 21
265.14284323383271
 31
0.0
  0
LINE
  5
6086
  8
0
 10
10.0
 20
264.14284323383271
 30
0.0
 11
12.0
 21
264.14284323383271
 31
0.0
  0
LINE
  5
6087
  8
0
 10
10.0
 20
261.14284323383259
 30
0.0
 11
11.0
 21
261.14284323383259
 31
0.0
  0
LINE
  5
6088
  8
0
 10
10.0
 20
262.14284323383271
 30
0.0
 11
11.0
 21
262.14284323383271
 31
0.0
  0
LINE
  5
6089
  8
0
 10
10.0
 20
263.14284323383271
 30
0.0
 11
11.0
 21
263.14284323383271
 31
0.0
  0
TEXT
  5
608A
  8
0
 10
15.330423107039669
 20
258.14284323383271
 30
0.0
 40
2.0
  1
20
 72
     2
 11
18.330423107039671
 21
259.14284323383259
 31
0.0
 73
     2
  0
LINE
  5
608B
  8
0
 10
10.0
 20
278.14284323383259
 30
0.0
 11
11.0
 21
278.14284323383259
 31
0.0
  0
LINE
  5
608C
  8
0
 10
10.0
 20
277.14284323383271
 30
0.0
 11
11.0
 21
277.14284323383271
 31
0.0
  0
LINE
  5
608D
  8
0
 10
10.0
 20
276.14284323383259
 30
0.0
 11
11.0
 21
276.14284323383259
 31
0.0
  0
LINE
  5
608E
  8
0
 10
10.0
 20
275.14284323383271
 30
0.0
 11
11.0
 21
275.14284323383271
 31
0.0
  0
LINE
  5
608F
  8
0
 10
10.0
 20
272.14284323383271
 30
0.0
 11
11.0
 21
272.14284323383271
 31
0.0
  0
LINE
  5
6090
  8
0
 10
10.0
 20
273.14284323383271
 30
0.0
 11
11.0
 21
273.14284323383271
 31
0.0
  0
LINE
  5
6091
  8
0
 10
10.0
 20
274.14284323383271
 30
0.0
 11
12.0
 21
274.14284323383271
 31
0.0
  0
LINE
  5
6092
  8
0
 10
10.0
 20
270.14284323383271
 30
0.0
 11
11.0
 21
270.14284323383271
 31
0.0
  0
LINE
  5
6093
  8
0
 10
10.0
 20
271.14284323383271
 30
0.0
 11
11.0
 21
271.14284323383271
 31
0.0
  0
LINE
  5
6094
  8
0
 10
10.0
 20
279.14284323383271
 30
0.0
 11
13.0
 21
279.14284323383271
 31
0.0
  0
LINE
  5
6095
  8
0
 10
10.0
 20
281.14284323383271
 30
0.0
 11
11.0
 21
281.14284323383271
 31
0.0
  0
LINE
  5
6096
  8
0
 10
10.0
 20
282.14284323383271
 30
0.0
 11
11.0
 21
282.14284323383271
 31
0.0
  0
LINE
  5
6097
  8
0
 10
10.0
 20
286.14284323383271
 30
0.0
 11
11.0
 21
286.14284323383271
 31
0.0
  0
LINE
  5
6098
  8
0
 10
10.0
 20
285.14284323383271
 30
0.0
 11
11.0
 21
285.14284323383271
 31
0.0
  0
LINE
  5
6099
  8
0
 10
10.0
 20
283.14284323383271
 30
0.0
 11
11.0
 21
283.14284323383271
 31
0.0
  0
LINE
  5
609A
  8
0
 10
10.0
 20
284.14284323383271
 30
0.0
 11
12.0
 21
284.14284323383271
 31
0.0
  0
LINE
  5
609B
  8
0
 10
10.0
 20
280.14284323383259
 30
0.0
 11
11.0
 21
280.14284323383259
 31
0.0
  0
TEXT
  5
609C
  8
0
 10
15.663756440373
 20
278.14284323383259
 30
0.0
 40
2.0
  1
18
 72
     2
 11
18.330423107039671
 21
279.14284323383271
 31
0.0
 73
     2
  0
LINE
  5
609D
  8
0
 10
10.0
 20
289.14284323383271
 30
0.0
 11
13.0
 21
289.14284323383271
 31
0.0
  0
LINE
  5
609E
  8
0
 10
10.0
 20
290.14284323383271
 30
0.0
 11
11.0
 21
290.14284323383271
 31
0.0
  0
LINE
  5
609F
  8
0
 10
10.0
 20
291.14284323383271
 30
0.0
 11
11.0
 21
291.14284323383271
 31
0.0
  0
LINE
  5
60A0
  8
0
 10
10.0
 20
292.14284323383271
 30
0.0
 11
11.0
 21
292.14284323383271
 31
0.0
  0
LINE
  5
60A1
  8
0
 10
10.0
 20
293.14284323383271
 30
0.0
 11
11.0
 21
293.14284323383271
 31
0.0
  0
LINE
  5
60A2
  8
0
 10
10.0
 20
295.14284323383271
 30
0.0
 11
11.0
 21
295.14284323383271
 31
0.0
  0
LINE
  5
60A3
  8
0
 10
10.0
 20
294.14284323383271
 30
0.0
 11
12.0
 21
294.14284323383271
 31
0.0
  0
LINE
  5
60A4
  8
0
 10
10.0
 20
288.14284323383271
 30
0.0
 11
11.0
 21
288.14284323383271
 31
0.0
  0
LINE
  5
60A5
  8
0
 10
10.0
 20
287.14284323383271
 30
0.0
 11
11.0
 21
287.14284323383271
 31
0.0
  0
LINE
  5
60A6
  8
0
 10
10.0
 20
299.14284323383271
 30
0.0
 11
13.0
 21
299.14284323383271
 31
0.0
  0
LINE
  5
60A7
  8
0
 10
10.0
 20
298.14284323383271
 30
0.0
 11
11.0
 21
298.14284323383271
 31
0.0
  0
LINE
  5
60A8
  8
0
 10
10.0
 20
297.14284323383271
 30
0.0
 11
11.0
 21
297.14284323383271
 31
0.0
  0
LINE
  5
60A9
  8
0
 10
10.0
 20
300.14284323383271
 30
0.0
 11
11.0
 21
300.14284323383271
 31
0.0
  0
LINE
  5
60AA
  8
0
 10
10.0
 20
301.14284323383271
 30
0.0
 11
11.0
 21
301.14284323383271
 31
0.0
  0
LINE
  5
60AB
  8
0
 10
10.0
 20
302.14284323383271
 30
0.0
 11
11.0
 21
302.14284323383271
 31
0.0
  0
LINE
  5
60AC
  8
0
 10
10.0
 20
303.14284323383271
 30
0.0
 11
11.0
 21
303.14284323383271
 31
0.0
  0
LINE
  5
60AD
  8
0
 10
10.0
 20
304.14284323383271
 30
0.0
 11
12.0
 21
304.14284323383271
 31
0.0
  0
LINE
  5
60AE
  8
0
 10
10.0
 20
296.14284323383271
 30
0.0
 11
11.0
 21
296.14284323383271
 31
0.0
  0
TEXT
  5
60AF
  8
0
 10
15.663756440373
 20
288.14284323383271
 30
0.0
 40
2.0
  1
17
 72
     2
 11
18.330423107039671
 21
289.14284323383271
 31
0.0
 73
     2
  0
TEXT
  5
60B0
  8
0
 10
15.663756440373
 20
298.14284323383271
 30
0.0
 40
2.0
  1
16
 72
     2
 11
18.330423107039671
 21
299.14284323383271
 31
0.0
 73
     2
  0
LINE
  5
60B1
  8
0
 10
10.0
 20
309.14284323383271
 30
0.0
 11
13.0
 21
309.14284323383271
 31
0.0
  0
LINE
  5
60B2
  8
0
 10
10.0
 20
313.14284323383271
 30
0.0
 11
11.0
 21
313.14284323383271
 31
0.0
  0
LINE
  5
60B3
  8
0
 10
10.0
 20
308.14284323383271
 30
0.0
 11
11.0
 21
308.14284323383271
 31
0.0
  0
LINE
  5
60B4
  8
0
 10
10.0
 20
307.14284323383271
 30
0.0
 11
11.0
 21
307.14284323383271
 31
0.0
  0
LINE
  5
60B5
  8
0
 10
10.0
 20
306.14284323383271
 30
0.0
 11
11.0
 21
306.14284323383271
 31
0.0
  0
LINE
  5
60B6
  8
0
 10
10.0
 20
305.14284323383271
 30
0.0
 11
11.0
 21
305.14284323383271
 31
0.0
  0
LINE
  5
60B7
  8
0
 10
10.0
 20
310.14284323383271
 30
0.0
 11
11.0
 21
310.14284323383271
 31
0.0
  0
LINE
  5
60B8
  8
0
 10
10.0
 20
311.14284323383271
 30
0.0
 11
11.0
 21
311.14284323383271
 31
0.0
  0
LINE
  5
60B9
  8
0
 10
10.0
 20
312.14284323383271
 30
0.0
 11
11.0
 21
312.14284323383271
 31
0.0
  0
LINE
  5
60BA
  8
0
 10
10.0
 20
319.14284323383271
 30
0.0
 11
13.0
 21
319.14284323383271
 31
0.0
  0
LINE
  5
60BB
  8
0
 10
10.0
 20
318.14284323383271
 30
0.0
 11
11.0
 21
318.14284323383271
 31
0.0
  0
LINE
  5
60BC
  8
0
 10
10.0
 20
317.14284323383271
 30
0.0
 11
11.0
 21
317.14284323383271
 31
0.0
  0
LINE
  5
60BD
  8
0
 10
10.0
 20
316.14284323383271
 30
0.0
 11
11.0
 21
316.14284323383271
 31
0.0
  0
LINE
  5
60BE
  8
0
 10
10.0
 20
315.14284323383271
 30
0.0
 11
11.0
 21
315.14284323383271
 31
0.0
  0
LINE
  5
60BF
  8
0
 10
10.0
 20
320.14284323383271
 30
0.0
 11
11.0
 21
320.14284323383271
 31
0.0
  0
LINE
  5
60C0
  8
0
 10
10.0
 20
321.14284323383271
 30
0.0
 11
11.0
 21
321.14284323383271
 31
0.0
  0
LINE
  5
60C1
  8
0
 10
10.0
 20
314.14284323383271
 30
0.0
 11
12.0
 21
314.14284323383271
 31
0.0
  0
TEXT
  5
60C2
  8
0
 10
15.663756440373
 20
308.14284323383271
 30
0.0
 40
2.0
  1
15
 72
     2
 11
18.330423107039671
 21
309.14284323383271
 31
0.0
 73
     2
  0
TEXT
  5
60C3
  8
0
 10
15.663756440373
 20
318.14284323383271
 30
0.0
 40
2.0
  1
14
 72
     2
 11
18.330423107039671
 21
319.14284323383271
 31
0.0
 73
     2
  0
TEXT
  5
60C4
  8
0
 10
15.663756440373
 20
338.14284323383271
 30
0.0
 40
2.0
  1
12
 72
     2
 11
18.330423107039671
 21
339.14284323383271
 31
0.0
 73
     2
  0
LINE
  5
60C5
  8
0
 10
10.0
 20
329.14284323383271
 30
0.0
 11
13.0
 21
329.14284323383271
 31
0.0
  0
LINE
  5
60C6
  8
0
 10
10.0
 20
330.14284323383271
 30
0.0
 11
11.0
 21
330.14284323383271
 31
0.0
  0
LINE
  5
60C7
  8
0
 10
10.0
 20
325.14284323383271
 30
0.0
 11
11.0
 21
325.14284323383271
 31
0.0
  0
LINE
  5
60C8
  8
0
 10
10.0
 20
322.14284323383271
 30
0.0
 11
11.0
 21
322.14284323383271
 31
0.0
  0
LINE
  5
60C9
  8
0
 10
10.0
 20
323.14284323383271
 30
0.0
 11
11.0
 21
323.14284323383271
 31
0.0
  0
LINE
  5
60CA
  8
0
 10
10.0
 20
328.14284323383271
 30
0.0
 11
11.0
 21
328.14284323383271
 31
0.0
  0
LINE
  5
60CB
  8
0
 10
10.0
 20
327.14284323383271
 30
0.0
 11
11.0
 21
327.14284323383271
 31
0.0
  0
LINE
  5
60CC
  8
0
 10
10.0
 20
326.14284323383271
 30
0.0
 11
11.0
 21
326.14284323383271
 31
0.0
  0
LINE
  5
60CD
  8
0
 10
10.0
 20
324.14284323383271
 30
0.0
 11
12.0
 21
324.14284323383271
 31
0.0
  0
LINE
  5
60CE
  8
0
 10
10.0
 20
339.14284323383271
 30
0.0
 11
13.0
 21
339.14284323383271
 31
0.0
  0
LINE
  5
60CF
  8
0
 10
10.0
 20
338.14284323383271
 30
0.0
 11
11.0
 21
338.14284323383271
 31
0.0
  0
LINE
  5
60D0
  8
0
 10
10.0
 20
336.14284323383271
 30
0.0
 11
11.0
 21
336.14284323383271
 31
0.0
  0
LINE
  5
60D1
  8
0
 10
10.0
 20
335.14284323383271
 30
0.0
 11
11.0
 21
335.14284323383271
 31
0.0
  0
LINE
  5
60D2
  8
0
 10
10.0
 20
331.14284323383271
 30
0.0
 11
11.0
 21
331.14284323383271
 31
0.0
  0
LINE
  5
60D3
  8
0
 10
10.0
 20
332.14284323383271
 30
0.0
 11
11.0
 21
332.14284323383271
 31
0.0
  0
LINE
  5
60D4
  8
0
 10
10.0
 20
333.14284323383271
 30
0.0
 11
11.0
 21
333.14284323383271
 31
0.0
  0
LINE
  5
60D5
  8
0
 10
10.0
 20
337.14284323383271
 30
0.0
 11
11.0
 21
337.14284323383271
 31
0.0
  0
LINE
  5
60D6
  8
0
 10
10.0
 20
334.14284323383271
 30
0.0
 11
12.0
 21
334.14284323383271
 31
0.0
  0
TEXT
  5
60D7
  8
0
 10
15.663756440373
 20
328.14284323383271
 30
0.0
 40
2.0
  1
13
 72
     2
 11
18.330423107039671
 21
329.14284323383271
 31
0.0
 73
     2
  0
LINE
  5
60D8
  8
0
 10
10.0
 20
346.14284323383271
 30
0.0
 11
11.0
 21
346.14284323383271
 31
0.0
  0
LINE
  5
60D9
  8
0
 10
10.0
 20
347.14284323383271
 30
0.0
 11
11.0
 21
347.14284323383271
 31
0.0
  0
LINE
  5
60DA
  8
0
 10
10.0
 20
345.14284323383271
 30
0.0
 11
11.0
 21
345.14284323383271
 31
0.0
  0
LINE
  5
60DB
  8
0
 10
10.0
 20
340.14284323383271
 30
0.0
 11
11.0
 21
340.14284323383271
 31
0.0
  0
LINE
  5
60DC
  8
0
 10
10.0
 20
341.14284323383271
 30
0.0
 11
11.0
 21
341.14284323383271
 31
0.0
  0
LINE
  5
60DD
  8
0
 10
10.0
 20
342.14284323383271
 30
0.0
 11
11.0
 21
342.14284323383271
 31
0.0
  0
LINE
  5
60DE
  8
0
 10
10.0
 20
343.14284323383271
 30
0.0
 11
11.0
 21
343.14284323383271
 31
0.0
  0
LINE
  5
60DF
  8
0
 10
10.0
 20
344.14284323383271
 30
0.0
 11
12.0
 21
344.14284323383271
 31
0.0
  0
LINE
  5
60E0
  8
0
 10
10.0
 20
349.14284323383271
 30
0.0
 11
13.0
 21
349.14284323383271
 31
0.0
  0
LINE
  5
60E1
  8
0
 10
10.0
 20
355.14284323383271
 30
0.0
 11
11.0
 21
355.14284323383271
 31
0.0
  0
LINE
  5
60E2
  8
0
 10
10.0
 20
356.14284323383271
 30
0.0
 11
11.0
 21
356.14284323383271
 31
0.0
  0
LINE
  5
60E3
  8
0
 10
10.0
 20
354.14284323383271
 30
0.0
 11
12.0
 21
354.14284323383271
 31
0.0
  0
LINE
  5
60E4
  8
0
 10
10.0
 20
348.14284323383271
 30
0.0
 11
11.0
 21
348.14284323383271
 31
0.0
  0
LINE
  5
60E5
  8
0
 10
10.0
 20
353.14284323383271
 30
0.0
 11
11.0
 21
353.14284323383271
 31
0.0
  0
LINE
  5
60E6
  8
0
 10
10.0
 20
352.14284323383271
 30
0.0
 11
11.0
 21
352.14284323383271
 31
0.0
  0
LINE
  5
60E7
  8
0
 10
10.0
 20
351.14284323383271
 30
0.0
 11
11.0
 21
351.14284323383271
 31
0.0
  0
LINE
  5
60E8
  8
0
 10
10.0
 20
350.14284323383271
 30
0.0
 11
11.0
 21
350.14284323383271
 31
0.0
  0
TEXT
  5
60E9
  8
0
 10
16.330423107039671
 20
348.14284323383271
 30
0.0
 40
2.0
  1
11
 72
     2
 11
18.330423107039671
 21
349.14284323383271
 31
0.0
 73
     2
  0
LINE
  5
60EA
  8
0
 10
10.0
 20
357.14284323383271
 30
0.0
 11
11.0
 21
357.14284323383271
 31
0.0
  0
LINE
  5
60EB
  8
0
 10
10.0
 20
358.14284323383271
 30
0.0
 11
11.0
 21
358.14284323383271
 31
0.0
  0
LINE
  5
60EC
  8
0
 10
10.0
 20
163.14284323383271
 30
0.0
 11
11.0
 21
163.14284323383271
 31
0.0
  0
LINE
  5
60ED
  8
0
 10
10.0
 20
162.14284323383271
 30
0.0
 11
11.0
 21
162.14284323383271
 31
0.0
  0
LINE
  5
60EE
  8
0
 10
10.0
 20
161.14284323383271
 30
0.0
 11
11.0
 21
161.14284323383271
 31
0.0
  0
LINE
  5
60EF
  8
0
 10
10.0
 20
164.14284323383271
 30
0.0
 11
12.0
 21
164.14284323383271
 31
0.0
  0
LINE
  5
60F0
  8
0
 10
10.0
 20
160.14284323383271
 30
0.0
 11
11.0
 21
160.14284323383271
 31
0.0
  0
TEXT
  5
60F1
  8
0
 10
15.330423107039669
 20
159.33822515770899
 30
0.0
 40
2.0
  1
30
 72
     2
 11
18.330423107039671
 21
160.3382251577091
 31
0.0
 73
     2
  0
LINE
  5
60F2
  8
0
 10
10.0
 20
169.14284323383271
 30
0.0
 11
13.0
 21
169.14284323383271
 31
0.0
  0
LINE
  5
60F3
  8
0
 10
10.0
 20
171.14284323383271
 30
0.0
 11
11.0
 21
171.14284323383271
 31
0.0
  0
LINE
  5
60F4
  8
0
 10
10.0
 20
170.14284323383271
 30
0.0
 11
11.0
 21
170.14284323383271
 31
0.0
  0
LINE
  5
60F5
  8
0
 10
10.0
 20
173.14284323383271
 30
0.0
 11
11.0
 21
173.14284323383271
 31
0.0
  0
LINE
  5
60F6
  8
0
 10
10.0
 20
172.14284323383279
 30
0.0
 11
11.0
 21
172.14284323383279
 31
0.0
  0
LINE
  5
60F7
  8
0
 10
10.0
 20
165.14284323383271
 30
0.0
 11
11.0
 21
165.14284323383271
 31
0.0
  0
LINE
  5
60F8
  8
0
 10
10.0
 20
166.14284323383271
 30
0.0
 11
11.0
 21
166.14284323383271
 31
0.0
  0
LINE
  5
60F9
  8
0
 10
10.0
 20
167.14284323383271
 30
0.0
 11
11.0
 21
167.14284323383271
 31
0.0
  0
LINE
  5
60FA
  8
0
 10
10.0
 20
168.14284323383271
 30
0.0
 11
11.0
 21
168.14284323383271
 31
0.0
  0
LINE
  5
60FB
  8
0
 10
10.0
 20
179.14284323383279
 30
0.0
 11
13.0
 21
179.14284323383279
 31
0.0
  0
LINE
  5
60FC
  8
0
 10
10.0
 20
180.14284323383279
 30
0.0
 11
11.0
 21
180.14284323383279
 31
0.0
  0
LINE
  5
60FD
  8
0
 10
10.0
 20
182.14284323383271
 30
0.0
 11
11.0
 21
182.14284323383271
 31
0.0
  0
LINE
  5
60FE
  8
0
 10
10.0
 20
181.14284323383279
 30
0.0
 11
11.0
 21
181.14284323383279
 31
0.0
  0
LINE
  5
60FF
  8
0
 10
10.0
 20
174.14284323383271
 30
0.0
 11
12.0
 21
174.14284323383271
 31
0.0
  0
LINE
  5
6100
  8
0
 10
10.0
 20
175.14284323383279
 30
0.0
 11
11.0
 21
175.14284323383279
 31
0.0
  0
LINE
  5
6101
  8
0
 10
10.0
 20
176.14284323383279
 30
0.0
 11
11.0
 21
176.14284323383279
 31
0.0
  0
LINE
  5
6102
  8
0
 10
10.0
 20
177.14284323383279
 30
0.0
 11
11.0
 21
177.14284323383279
 31
0.0
  0
LINE
  5
6103
  8
0
 10
10.0
 20
178.14284323383271
 30
0.0
 11
11.0
 21
178.14284323383271
 31
0.0
  0
TEXT
  5
6104
  8
0
 10
14.99708977370633
 20
168.14284323383271
 30
0.0
 40
2.0
  1
29
 72
     2
 11
18.330423107039671
 21
169.14284323383271
 31
0.0
 73
     2
  0
TEXT
  5
6105
  8
0
 10
14.99708977370633
 20
178.14284323383279
 30
0.0
 40
2.0
  1
28
 72
     2
 11
18.330423107039671
 21
179.14284323383279
 31
0.0
 73
     2
  0
TEXT
  5
6106
  8
0
 10
14.99708977370633
 20
198.14284323383271
 30
0.0
 40
2.0
  1
26
 72
     2
 11
18.330423107039671
 21
199.14284323383271
 31
0.0
 73
     2
  0
LINE
  5
6107
  8
0
 10
10.0
 20
189.14284323383271
 30
0.0
 11
13.0
 21
189.14284323383271
 31
0.0
  0
LINE
  5
6108
  8
0
 10
10.0
 20
184.14284323383271
 30
0.0
 11
12.0
 21
184.14284323383271
 31
0.0
  0
LINE
  5
6109
  8
0
 10
10.0
 20
183.14284323383271
 30
0.0
 11
11.0
 21
183.14284323383271
 31
0.0
  0
LINE
  5
610A
  8
0
 10
10.0
 20
185.14284323383271
 30
0.0
 11
11.0
 21
185.14284323383271
 31
0.0
  0
LINE
  5
610B
  8
0
 10
10.0
 20
186.14284323383259
 30
0.0
 11
11.0
 21
186.14284323383259
 31
0.0
  0
LINE
  5
610C
  8
0
 10
10.0
 20
187.14284323383259
 30
0.0
 11
11.0
 21
187.14284323383259
 31
0.0
  0
LINE
  5
610D
  8
0
 10
10.0
 20
188.14284323383259
 30
0.0
 11
11.0
 21
188.14284323383259
 31
0.0
  0
LINE
  5
610E
  8
0
 10
10.0
 20
191.14284323383259
 30
0.0
 11
11.0
 21
191.14284323383259
 31
0.0
  0
LINE
  5
610F
  8
0
 10
10.0
 20
190.14284323383271
 30
0.0
 11
11.0
 21
190.14284323383271
 31
0.0
  0
LINE
  5
6110
  8
0
 10
10.0
 20
199.14284323383271
 30
0.0
 11
13.0
 21
199.14284323383271
 31
0.0
  0
LINE
  5
6111
  8
0
 10
10.0
 20
196.14284323383279
 30
0.0
 11
11.0
 21
196.14284323383279
 31
0.0
  0
LINE
  5
6112
  8
0
 10
10.0
 20
197.14284323383279
 30
0.0
 11
11.0
 21
197.14284323383279
 31
0.0
  0
LINE
  5
6113
  8
0
 10
10.0
 20
198.14284323383271
 30
0.0
 11
11.0
 21
198.14284323383271
 31
0.0
  0
LINE
  5
6114
  8
0
 10
10.0
 20
194.14284323383271
 30
0.0
 11
12.0
 21
194.14284323383271
 31
0.0
  0
LINE
  5
6115
  8
0
 10
10.0
 20
195.14284323383271
 30
0.0
 11
11.0
 21
195.14284323383271
 31
0.0
  0
LINE
  5
6116
  8
0
 10
10.0
 20
193.14284323383271
 30
0.0
 11
11.0
 21
193.14284323383271
 31
0.0
  0
LINE
  5
6117
  8
0
 10
10.0
 20
192.14284323383271
 30
0.0
 11
11.0
 21
192.14284323383271
 31
0.0
  0
TEXT
  5
6118
  8
0
 10
14.997089773706341
 20
188.14284323383259
 30
0.0
 40
2.0
  1
27
 72
     2
 11
18.330423107039671
 21
189.14284323383271
 31
0.0
 73
     2
  0
LINE
  5
6119
  8
0
 10
10.0
 20
205.14284323383259
 30
0.0
 11
11.0
 21
205.14284323383259
 31
0.0
  0
LINE
  5
611A
  8
0
 10
10.0
 20
206.14284323383279
 30
0.0
 11
11.0
 21
206.14284323383279
 31
0.0
  0
LINE
  5
611B
  8
0
 10
10.0
 20
207.14284323383259
 30
0.0
 11
11.0
 21
207.14284323383259
 31
0.0
  0
LINE
  5
611C
  8
0
 10
10.0
 20
208.14284323383279
 30
0.0
 11
11.0
 21
208.14284323383279
 31
0.0
  0
LINE
  5
611D
  8
0
 10
10.0
 20
204.14284323383279
 30
0.0
 11
12.0
 21
204.14284323383279
 31
0.0
  0
LINE
  5
611E
  8
0
 10
10.0
 20
203.14284323383259
 30
0.0
 11
11.0
 21
203.14284323383259
 31
0.0
  0
LINE
  5
611F
  8
0
 10
10.0
 20
202.14284323383279
 30
0.0
 11
11.0
 21
202.14284323383279
 31
0.0
  0
LINE
  5
6120
  8
0
 10
10.0
 20
201.14284323383259
 30
0.0
 11
11.0
 21
201.14284323383259
 31
0.0
  0
LINE
  5
6121
  8
0
 10
10.0
 20
200.14284323383279
 30
0.0
 11
11.0
 21
200.14284323383279
 31
0.0
  0
LINE
  5
6122
  8
0
 10
10.0
 20
209.14284323383259
 30
0.0
 11
13.0
 21
209.14284323383259
 31
0.0
  0
LINE
  5
6123
  8
0
 10
10.0
 20
214.14284323383279
 30
0.0
 11
12.0
 21
214.14284323383279
 31
0.0
  0
LINE
  5
6124
  8
0
 10
10.0
 20
215.14284323383271
 30
0.0
 11
11.0
 21
215.14284323383271
 31
0.0
  0
LINE
  5
6125
  8
0
 10
10.0
 20
216.14284323383279
 30
0.0
 11
11.0
 21
216.14284323383279
 31
0.0
  0
LINE
  5
6126
  8
0
 10
10.0
 20
217.14284323383271
 30
0.0
 11
11.0
 21
217.14284323383271
 31
0.0
  0
LINE
  5
6127
  8
0
 10
10.0
 20
212.14284323383279
 30
0.0
 11
11.0
 21
212.14284323383279
 31
0.0
  0
LINE
  5
6128
  8
0
 10
10.0
 20
211.14284323383259
 30
0.0
 11
11.0
 21
211.14284323383259
 31
0.0
  0
LINE
  5
6129
  8
0
 10
10.0
 20
210.14284323383279
 30
0.0
 11
11.0
 21
210.14284323383279
 31
0.0
  0
LINE
  5
612A
  8
0
 10
10.0
 20
213.14284323383271
 30
0.0
 11
11.0
 21
213.14284323383271
 31
0.0
  0
TEXT
  5
612B
  8
0
 10
14.99708977370633
 20
208.14284323383271
 30
0.0
 40
2.0
  1
25
 72
     2
 11
18.330423107039671
 21
209.14284323383259
 31
0.0
 73
     2
  0
LINE
  5
612C
  8
0
 10
10.0
 20
219.14284323383271
 30
0.0
 11
13.0
 21
219.14284323383271
 31
0.0
  0
LINE
  5
612D
  8
0
 10
10.0
 20
224.14284323383271
 30
0.0
 11
12.0
 21
224.14284323383271
 31
0.0
  0
LINE
  5
612E
  8
0
 10
10.0
 20
223.14284323383271
 30
0.0
 11
11.0
 21
223.14284323383271
 31
0.0
  0
LINE
  5
612F
  8
0
 10
10.0
 20
222.14284323383271
 30
0.0
 11
11.0
 21
222.14284323383271
 31
0.0
  0
LINE
  5
6130
  8
0
 10
10.0
 20
225.14284323383279
 30
0.0
 11
11.0
 21
225.14284323383279
 31
0.0
  0
LINE
  5
6131
  8
0
 10
10.0
 20
221.14284323383271
 30
0.0
 11
11.0
 21
221.14284323383271
 31
0.0
  0
LINE
  5
6132
  8
0
 10
10.0
 20
220.14284323383279
 30
0.0
 11
11.0
 21
220.14284323383279
 31
0.0
  0
LINE
  5
6133
  8
0
 10
10.0
 20
218.14284323383279
 30
0.0
 11
11.0
 21
218.14284323383279
 31
0.0
  0
LINE
  5
6134
  8
0
 10
10.0
 20
229.14284323383279
 30
0.0
 11
13.0
 21
229.14284323383279
 31
0.0
  0
LINE
  5
6135
  8
0
 10
10.0
 20
234.14284323383259
 30
0.0
 11
12.0
 21
234.14284323383259
 31
0.0
  0
LINE
  5
6136
  8
0
 10
10.0
 20
233.14284323383279
 30
0.0
 11
11.0
 21
233.14284323383279
 31
0.0
  0
LINE
  5
6137
  8
0
 10
10.0
 20
232.14284323383259
 30
0.0
 11
11.0
 21
232.14284323383259
 31
0.0
  0
LINE
  5
6138
  8
0
 10
10.0
 20
231.14284323383279
 30
0.0
 11
11.0
 21
231.14284323383279
 31
0.0
  0
LINE
  5
6139
  8
0
 10
10.0
 20
226.14284323383259
 30
0.0
 11
11.0
 21
226.14284323383259
 31
0.0
  0
LINE
  5
613A
  8
0
 10
10.0
 20
227.14284323383279
 30
0.0
 11
11.0
 21
227.14284323383279
 31
0.0
  0
LINE
  5
613B
  8
0
 10
10.0
 20
228.14284323383259
 30
0.0
 11
11.0
 21
228.14284323383259
 31
0.0
  0
LINE
  5
613C
  8
0
 10
10.0
 20
230.14284323383259
 30
0.0
 11
11.0
 21
230.14284323383259
 31
0.0
  0
TEXT
  5
613D
  8
0
 10
14.997089773706341
 20
218.14284323383271
 30
0.0
 40
2.0
  1
24
 72
     2
 11
18.330423107039671
 21
219.14284323383271
 31
0.0
 73
     2
  0
TEXT
  5
613E
  8
0
 10
14.99708977370633
 20
228.14284323383279
 30
0.0
 40
2.0
  1
23
 72
     2
 11
18.330423107039671
 21
229.14284323383279
 31
0.0
 73
     2
  0
LINE
  5
613F
  8
0
 10
10.0
 20
239.14284323383279
 30
0.0
 11
13.0
 21
239.14284323383279
 31
0.0
  0
LINE
  5
6140
  8
0
 10
10.0
 20
243.14284323383279
 30
0.0
 11
11.0
 21
243.14284323383279
 31
0.0
  0
LINE
  5
6141
  8
0
 10
10.0
 20
242.14284323383271
 30
0.0
 11
11.0
 21
242.14284323383271
 31
0.0
  0
LINE
  5
6142
  8
0
 10
10.0
 20
241.14284323383279
 30
0.0
 11
11.0
 21
241.14284323383279
 31
0.0
  0
LINE
  5
6143
  8
0
 10
10.0
 20
240.14284323383271
 30
0.0
 11
11.0
 21
240.14284323383271
 31
0.0
  0
LINE
  5
6144
  8
0
 10
10.0
 20
237.14284323383279
 30
0.0
 11
11.0
 21
237.14284323383279
 31
0.0
  0
LINE
  5
6145
  8
0
 10
10.0
 20
235.14284323383279
 30
0.0
 11
11.0
 21
235.14284323383279
 31
0.0
  0
LINE
  5
6146
  8
0
 10
10.0
 20
236.14284323383259
 30
0.0
 11
11.0
 21
236.14284323383259
 31
0.0
  0
LINE
  5
6147
  8
0
 10
10.0
 20
238.14284323383271
 30
0.0
 11
11.0
 21
238.14284323383271
 31
0.0
  0
LINE
  5
6148
  8
0
 10
10.0
 20
249.14284323383271
 30
0.0
 11
13.0
 21
249.14284323383271
 31
0.0
  0
LINE
  5
6149
  8
0
 10
10.0
 20
250.14284323383279
 30
0.0
 11
11.0
 21
250.14284323383279
 31
0.0
  0
LINE
  5
614A
  8
0
 10
10.0
 20
251.14284323383259
 30
0.0
 11
11.0
 21
251.14284323383259
 31
0.0
  0
LINE
  5
614B
  8
0
 10
10.0
 20
252.14284323383279
 30
0.0
 11
11.0
 21
252.14284323383279
 31
0.0
  0
LINE
  5
614C
  8
0
 10
10.0
 20
248.14284323383271
 30
0.0
 11
11.0
 21
248.14284323383271
 31
0.0
  0
LINE
  5
614D
  8
0
 10
10.0
 20
244.14284323383271
 30
0.0
 11
12.0
 21
244.14284323383271
 31
0.0
  0
LINE
  5
614E
  8
0
 10
10.0
 20
245.14284323383279
 30
0.0
 11
11.0
 21
245.14284323383279
 31
0.0
  0
LINE
  5
614F
  8
0
 10
10.0
 20
247.14284323383271
 30
0.0
 11
11.0
 21
247.14284323383271
 31
0.0
  0
LINE
  5
6150
  8
0
 10
10.0
 20
246.14284323383271
 30
0.0
 11
11.0
 21
246.14284323383271
 31
0.0
  0
TEXT
  5
6151
  8
0
 10
14.99708977370633
 20
238.14284323383279
 30
0.0
 40
2.0
  1
22
 72
     2
 11
18.330423107039671
 21
239.14284323383279
 31
0.0
 73
     2
  0
TEXT
  5
6152
  8
0
 10
15.663756440373
 20
248.14284323383271
 30
0.0
 40
2.0
  1
21
 72
     2
 11
18.330423107039671
 21
249.14284323383271
 31
0.0
 73
     2
  0
LINE
  5
6153
  8
0
 10
10.0
 20
258.14284323383271
 30
0.0
 11
11.0
 21
258.14284323383271
 31
0.0
  0
LINE
  5
6154
  8
0
 10
10.0
 20
257.14284323383259
 30
0.0
 11
11.0
 21
257.14284323383259
 31
0.0
  0
LINE
  5
6155
  8
0
 10
10.0
 20
253.14284323383259
 30
0.0
 11
11.0
 21
253.14284323383259
 31
0.0
  0
LINE
  5
6156
  8
0
 10
10.0
 20
254.14284323383279
 30
0.0
 11
12.0
 21
254.14284323383279
 31
0.0
  0
LINE
  5
6157
  8
0
 10
10.0
 20
256.14284323383271
 30
0.0
 11
11.0
 21
256.14284323383271
 31
0.0
  0
LINE
  5
6158
  8
0
 10
10.0
 20
255.14284323383259
 30
0.0
 11
11.0
 21
255.14284323383259
 31
0.0
  0
LINE
  5
6159
  8
0
 10
288.0
 20
160.14284323383271
 30
0.0
 11
287.0
 21
160.14284323383271
 31
0.0
  0
LINE
  5
615A
  8
0
 10
288.0
 20
169.14284323383271
 30
0.0
 11
285.0
 21
169.14284323383271
 31
0.0
  0
LINE
  5
615B
  8
0
 10
288.0
 20
168.14284323383271
 30
0.0
 11
287.0
 21
168.14284323383271
 31
0.0
  0
LINE
  5
615C
  8
0
 10
288.0
 20
167.14284323383271
 30
0.0
 11
287.0
 21
167.14284323383271
 31
0.0
  0
LINE
  5
615D
  8
0
 10
288.0
 20
166.14284323383271
 30
0.0
 11
287.0
 21
166.14284323383271
 31
0.0
  0
LINE
  5
615E
  8
0
 10
288.0
 20
165.14284323383271
 30
0.0
 11
287.0
 21
165.14284323383271
 31
0.0
  0
LINE
  5
615F
  8
0
 10
288.0
 20
164.14284323383271
 30
0.0
 11
286.0
 21
164.14284323383271
 31
0.0
  0
LINE
  5
6160
  8
0
 10
288.0
 20
161.14284323383271
 30
0.0
 11
287.0
 21
161.14284323383271
 31
0.0
  0
LINE
  5
6161
  8
0
 10
288.0
 20
162.14284323383271
 30
0.0
 11
287.0
 21
162.14284323383271
 31
0.0
  0
LINE
  5
6162
  8
0
 10
288.0
 20
163.14284323383271
 30
0.0
 11
287.0
 21
163.14284323383271
 31
0.0
  0
LINE
  5
6163
  8
0
 10
288.0
 20
177.14284323383279
 30
0.0
 11
287.0
 21
177.14284323383279
 31
0.0
  0
LINE
  5
6164
  8
0
 10
288.0
 20
176.14284323383279
 30
0.0
 11
287.0
 21
176.14284323383279
 31
0.0
  0
LINE
  5
6165
  8
0
 10
288.0
 20
175.14284323383279
 30
0.0
 11
287.0
 21
175.14284323383279
 31
0.0
  0
LINE
  5
6166
  8
0
 10
288.0
 20
174.14284323383271
 30
0.0
 11
286.0
 21
174.14284323383271
 31
0.0
  0
LINE
  5
6167
  8
0
 10
288.0
 20
172.14284323383279
 30
0.0
 11
287.0
 21
172.14284323383279
 31
0.0
  0
LINE
  5
6168
  8
0
 10
288.0
 20
173.14284323383271
 30
0.0
 11
287.0
 21
173.14284323383271
 31
0.0
  0
LINE
  5
6169
  8
0
 10
288.0
 20
170.14284323383271
 30
0.0
 11
287.0
 21
170.14284323383271
 31
0.0
  0
LINE
  5
616A
  8
0
 10
288.0
 20
171.14284323383271
 30
0.0
 11
287.0
 21
171.14284323383271
 31
0.0
  0
LINE
  5
616B
  8
0
 10
288.0
 20
179.14284323383279
 30
0.0
 11
285.0
 21
179.14284323383279
 31
0.0
  0
LINE
  5
616C
  8
0
 10
288.0
 20
186.14284323383259
 30
0.0
 11
287.0
 21
186.14284323383259
 31
0.0
  0
LINE
  5
616D
  8
0
 10
288.0
 20
185.14284323383271
 30
0.0
 11
287.0
 21
185.14284323383271
 31
0.0
  0
LINE
  5
616E
  8
0
 10
288.0
 20
183.14284323383271
 30
0.0
 11
287.0
 21
183.14284323383271
 31
0.0
  0
LINE
  5
616F
  8
0
 10
288.0
 20
184.14284323383271
 30
0.0
 11
286.0
 21
184.14284323383271
 31
0.0
  0
LINE
  5
6170
  8
0
 10
288.0
 20
178.14284323383271
 30
0.0
 11
287.0
 21
178.14284323383271
 31
0.0
  0
LINE
  5
6171
  8
0
 10
288.0
 20
181.14284323383279
 30
0.0
 11
287.0
 21
181.14284323383279
 31
0.0
  0
LINE
  5
6172
  8
0
 10
288.0
 20
182.14284323383271
 30
0.0
 11
287.0
 21
182.14284323383271
 31
0.0
  0
LINE
  5
6173
  8
0
 10
288.0
 20
180.14284323383279
 30
0.0
 11
287.0
 21
180.14284323383279
 31
0.0
  0
LINE
  5
6174
  8
0
 10
288.0
 20
189.14284323383271
 30
0.0
 11
285.0
 21
189.14284323383271
 31
0.0
  0
LINE
  5
6175
  8
0
 10
288.0
 20
192.14284323383271
 30
0.0
 11
287.0
 21
192.14284323383271
 31
0.0
  0
LINE
  5
6176
  8
0
 10
288.0
 20
193.14284323383271
 30
0.0
 11
287.0
 21
193.14284323383271
 31
0.0
  0
LINE
  5
6177
  8
0
 10
288.0
 20
195.14284323383271
 30
0.0
 11
287.0
 21
195.14284323383271
 31
0.0
  0
LINE
  5
6178
  8
0
 10
288.0
 20
194.14284323383271
 30
0.0
 11
286.0
 21
194.14284323383271
 31
0.0
  0
LINE
  5
6179
  8
0
 10
288.0
 20
190.14284323383271
 30
0.0
 11
287.0
 21
190.14284323383271
 31
0.0
  0
LINE
  5
617A
  8
0
 10
288.0
 20
191.14284323383259
 30
0.0
 11
287.0
 21
191.14284323383259
 31
0.0
  0
LINE
  5
617B
  8
0
 10
288.0
 20
188.14284323383259
 30
0.0
 11
287.0
 21
188.14284323383259
 31
0.0
  0
LINE
  5
617C
  8
0
 10
288.0
 20
187.14284323383259
 30
0.0
 11
287.0
 21
187.14284323383259
 31
0.0
  0
LINE
  5
617D
  8
0
 10
288.0
 20
199.14284323383271
 30
0.0
 11
285.0
 21
199.14284323383271
 31
0.0
  0
LINE
  5
617E
  8
0
 10
288.0
 20
200.14284323383279
 30
0.0
 11
287.0
 21
200.14284323383279
 31
0.0
  0
LINE
  5
617F
  8
0
 10
288.0
 20
201.14284323383259
 30
0.0
 11
287.0
 21
201.14284323383259
 31
0.0
  0
LINE
  5
6180
  8
0
 10
288.0
 20
202.14284323383279
 30
0.0
 11
287.0
 21
202.14284323383279
 31
0.0
  0
LINE
  5
6181
  8
0
 10
288.0
 20
203.14284323383259
 30
0.0
 11
287.0
 21
203.14284323383259
 31
0.0
  0
LINE
  5
6182
  8
0
 10
288.0
 20
198.14284323383271
 30
0.0
 11
287.0
 21
198.14284323383271
 31
0.0
  0
LINE
  5
6183
  8
0
 10
288.0
 20
197.14284323383279
 30
0.0
 11
287.0
 21
197.14284323383279
 31
0.0
  0
LINE
  5
6184
  8
0
 10
288.0
 20
196.14284323383279
 30
0.0
 11
287.0
 21
196.14284323383279
 31
0.0
  0
LINE
  5
6185
  8
0
 10
288.0
 20
209.14284323383259
 30
0.0
 11
285.0
 21
209.14284323383259
 31
0.0
  0
LINE
  5
6186
  8
0
 10
288.0
 20
210.14284323383279
 30
0.0
 11
287.0
 21
210.14284323383279
 31
0.0
  0
LINE
  5
6187
  8
0
 10
288.0
 20
211.14284323383259
 30
0.0
 11
287.0
 21
211.14284323383259
 31
0.0
  0
LINE
  5
6188
  8
0
 10
288.0
 20
212.14284323383279
 30
0.0
 11
287.0
 21
212.14284323383279
 31
0.0
  0
LINE
  5
6189
  8
0
 10
288.0
 20
204.14284323383279
 30
0.0
 11
286.0
 21
204.14284323383279
 31
0.0
  0
LINE
  5
618A
  8
0
 10
288.0
 20
208.14284323383279
 30
0.0
 11
287.0
 21
208.14284323383279
 31
0.0
  0
LINE
  5
618B
  8
0
 10
288.0
 20
207.14284323383259
 30
0.0
 11
287.0
 21
207.14284323383259
 31
0.0
  0
LINE
  5
618C
  8
0
 10
288.0
 20
206.14284323383279
 30
0.0
 11
287.0
 21
206.14284323383279
 31
0.0
  0
LINE
  5
618D
  8
0
 10
288.0
 20
205.14284323383259
 30
0.0
 11
287.0
 21
205.14284323383259
 31
0.0
  0
LINE
  5
618E
  8
0
 10
288.0
 20
219.14284323383271
 30
0.0
 11
285.0
 21
219.14284323383271
 31
0.0
  0
LINE
  5
618F
  8
0
 10
288.0
 20
218.14284323383279
 30
0.0
 11
287.0
 21
218.14284323383279
 31
0.0
  0
LINE
  5
6190
  8
0
 10
288.0
 20
220.14284323383279
 30
0.0
 11
287.0
 21
220.14284323383279
 31
0.0
  0
LINE
  5
6191
  8
0
 10
288.0
 20
221.14284323383271
 30
0.0
 11
287.0
 21
221.14284323383271
 31
0.0
  0
LINE
  5
6192
  8
0
 10
288.0
 20
213.14284323383271
 30
0.0
 11
287.0
 21
213.14284323383271
 31
0.0
  0
LINE
  5
6193
  8
0
 10
288.0
 20
217.14284323383271
 30
0.0
 11
287.0
 21
217.14284323383271
 31
0.0
  0
LINE
  5
6194
  8
0
 10
288.0
 20
216.14284323383279
 30
0.0
 11
287.0
 21
216.14284323383279
 31
0.0
  0
LINE
  5
6195
  8
0
 10
288.0
 20
215.14284323383271
 30
0.0
 11
287.0
 21
215.14284323383271
 31
0.0
  0
LINE
  5
6196
  8
0
 10
288.0
 20
214.14284323383279
 30
0.0
 11
286.0
 21
214.14284323383279
 31
0.0
  0
LINE
  5
6197
  8
0
 10
288.0
 20
229.14284323383279
 30
0.0
 11
285.0
 21
229.14284323383279
 31
0.0
  0
LINE
  5
6198
  8
0
 10
288.0
 20
230.14284323383259
 30
0.0
 11
287.0
 21
230.14284323383259
 31
0.0
  0
LINE
  5
6199
  8
0
 10
288.0
 20
228.14284323383259
 30
0.0
 11
287.0
 21
228.14284323383259
 31
0.0
  0
LINE
  5
619A
  8
0
 10
288.0
 20
227.14284323383279
 30
0.0
 11
287.0
 21
227.14284323383279
 31
0.0
  0
LINE
  5
619B
  8
0
 10
288.0
 20
226.14284323383259
 30
0.0
 11
287.0
 21
226.14284323383259
 31
0.0
  0
LINE
  5
619C
  8
0
 10
288.0
 20
225.14284323383279
 30
0.0
 11
287.0
 21
225.14284323383279
 31
0.0
  0
LINE
  5
619D
  8
0
 10
288.0
 20
222.14284323383271
 30
0.0
 11
287.0
 21
222.14284323383271
 31
0.0
  0
LINE
  5
619E
  8
0
 10
288.0
 20
223.14284323383271
 30
0.0
 11
287.0
 21
223.14284323383271
 31
0.0
  0
LINE
  5
619F
  8
0
 10
288.0
 20
224.14284323383271
 30
0.0
 11
286.0
 21
224.14284323383271
 31
0.0
  0
LINE
  5
61A0
  8
0
 10
288.0
 20
238.14284323383271
 30
0.0
 11
287.0
 21
238.14284323383271
 31
0.0
  0
LINE
  5
61A1
  8
0
 10
288.0
 20
236.14284323383259
 30
0.0
 11
287.0
 21
236.14284323383259
 31
0.0
  0
LINE
  5
61A2
  8
0
 10
288.0
 20
235.14284323383279
 30
0.0
 11
287.0
 21
235.14284323383279
 31
0.0
  0
LINE
  5
61A3
  8
0
 10
288.0
 20
237.14284323383279
 30
0.0
 11
287.0
 21
237.14284323383279
 31
0.0
  0
LINE
  5
61A4
  8
0
 10
288.0
 20
231.14284323383279
 30
0.0
 11
287.0
 21
231.14284323383279
 31
0.0
  0
LINE
  5
61A5
  8
0
 10
288.0
 20
232.14284323383259
 30
0.0
 11
287.0
 21
232.14284323383259
 31
0.0
  0
LINE
  5
61A6
  8
0
 10
288.0
 20
233.14284323383279
 30
0.0
 11
287.0
 21
233.14284323383279
 31
0.0
  0
LINE
  5
61A7
  8
0
 10
288.0
 20
234.14284323383259
 30
0.0
 11
286.0
 21
234.14284323383259
 31
0.0
  0
LINE
  5
61A8
  8
0
 10
288.0
 20
239.14284323383279
 30
0.0
 11
285.0
 21
239.14284323383279
 31
0.0
  0
LINE
  5
61A9
  8
0
 10
288.0
 20
246.14284323383271
 30
0.0
 11
287.0
 21
246.14284323383271
 31
0.0
  0
LINE
  5
61AA
  8
0
 10
288.0
 20
247.14284323383271
 30
0.0
 11
287.0
 21
247.14284323383271
 31
0.0
  0
LINE
  5
61AB
  8
0
 10
288.0
 20
245.14284323383279
 30
0.0
 11
287.0
 21
245.14284323383279
 31
0.0
  0
LINE
  5
61AC
  8
0
 10
288.0
 20
244.14284323383271
 30
0.0
 11
286.0
 21
244.14284323383271
 31
0.0
  0
LINE
  5
61AD
  8
0
 10
288.0
 20
240.14284323383271
 30
0.0
 11
287.0
 21
240.14284323383271
 31
0.0
  0
LINE
  5
61AE
  8
0
 10
288.0
 20
241.14284323383279
 30
0.0
 11
287.0
 21
241.14284323383279
 31
0.0
  0
LINE
  5
61AF
  8
0
 10
288.0
 20
242.14284323383271
 30
0.0
 11
287.0
 21
242.14284323383271
 31
0.0
  0
LINE
  5
61B0
  8
0
 10
288.0
 20
243.14284323383279
 30
0.0
 11
287.0
 21
243.14284323383279
 31
0.0
  0
LINE
  5
61B1
  8
0
 10
288.0
 20
249.14284323383271
 30
0.0
 11
285.0
 21
249.14284323383271
 31
0.0
  0
LINE
  5
61B2
  8
0
 10
288.0
 20
255.14284323383259
 30
0.0
 11
287.0
 21
255.14284323383259
 31
0.0
  0
LINE
  5
61B3
  8
0
 10
288.0
 20
256.14284323383271
 30
0.0
 11
287.0
 21
256.14284323383271
 31
0.0
  0
LINE
  5
61B4
  8
0
 10
288.0
 20
254.14284323383279
 30
0.0
 11
286.0
 21
254.14284323383279
 31
0.0
  0
LINE
  5
61B5
  8
0
 10
288.0
 20
253.14284323383259
 30
0.0
 11
287.0
 21
253.14284323383259
 31
0.0
  0
LINE
  5
61B6
  8
0
 10
288.0
 20
248.14284323383271
 30
0.0
 11
287.0
 21
248.14284323383271
 31
0.0
  0
LINE
  5
61B7
  8
0
 10
288.0
 20
252.14284323383279
 30
0.0
 11
287.0
 21
252.14284323383279
 31
0.0
  0
LINE
  5
61B8
  8
0
 10
288.0
 20
251.14284323383259
 30
0.0
 11
287.0
 21
251.14284323383259
 31
0.0
  0
LINE
  5
61B9
  8
0
 10
288.0
 20
250.14284323383279
 30
0.0
 11
287.0
 21
250.14284323383279
 31
0.0
  0
LINE
  5
61BA
  8
0
 10
288.0
 20
259.14284323383259
 30
0.0
 11
285.0
 21
259.14284323383259
 31
0.0
  0
LINE
  5
61BB
  8
0
 10
288.0
 20
257.14284323383259
 30
0.0
 11
287.0
 21
257.14284323383259
 31
0.0
  0
LINE
  5
61BC
  8
0
 10
288.0
 20
258.14284323383271
 30
0.0
 11
287.0
 21
258.14284323383271
 31
0.0
  0
LINE
  5
61BD
  8
0
 10
288.0
 20
263.14284323383271
 30
0.0
 11
287.0
 21
263.14284323383271
 31
0.0
  0
LINE
  5
61BE
  8
0
 10
288.0
 20
262.14284323383271
 30
0.0
 11
287.0
 21
262.14284323383271
 31
0.0
  0
LINE
  5
61BF
  8
0
 10
288.0
 20
261.14284323383259
 30
0.0
 11
287.0
 21
261.14284323383259
 31
0.0
  0
LINE
  5
61C0
  8
0
 10
288.0
 20
264.14284323383271
 30
0.0
 11
286.0
 21
264.14284323383271
 31
0.0
  0
LINE
  5
61C1
  8
0
 10
288.0
 20
260.14284323383271
 30
0.0
 11
287.0
 21
260.14284323383271
 31
0.0
  0
LINE
  5
61C2
  8
0
 10
288.0
 20
269.14284323383271
 30
0.0
 11
285.0
 21
269.14284323383271
 31
0.0
  0
LINE
  5
61C3
  8
0
 10
288.0
 20
271.14284323383271
 30
0.0
 11
287.0
 21
271.14284323383271
 31
0.0
  0
LINE
  5
61C4
  8
0
 10
288.0
 20
270.14284323383271
 30
0.0
 11
287.0
 21
270.14284323383271
 31
0.0
  0
LINE
  5
61C5
  8
0
 10
288.0
 20
273.14284323383271
 30
0.0
 11
287.0
 21
273.14284323383271
 31
0.0
  0
LINE
  5
61C6
  8
0
 10
288.0
 20
272.14284323383271
 30
0.0
 11
287.0
 21
272.14284323383271
 31
0.0
  0
LINE
  5
61C7
  8
0
 10
288.0
 20
265.14284323383271
 30
0.0
 11
287.0
 21
265.14284323383271
 31
0.0
  0
LINE
  5
61C8
  8
0
 10
288.0
 20
266.14284323383271
 30
0.0
 11
287.0
 21
266.14284323383271
 31
0.0
  0
LINE
  5
61C9
  8
0
 10
288.0
 20
267.14284323383271
 30
0.0
 11
287.0
 21
267.14284323383271
 31
0.0
  0
LINE
  5
61CA
  8
0
 10
288.0
 20
268.14284323383271
 30
0.0
 11
287.0
 21
268.14284323383271
 31
0.0
  0
LINE
  5
61CB
  8
0
 10
288.0
 20
279.14284323383271
 30
0.0
 11
285.0
 21
279.14284323383271
 31
0.0
  0
LINE
  5
61CC
  8
0
 10
288.0
 20
280.14284323383259
 30
0.0
 11
287.0
 21
280.14284323383259
 31
0.0
  0
LINE
  5
61CD
  8
0
 10
288.0
 20
282.14284323383271
 30
0.0
 11
287.0
 21
282.14284323383271
 31
0.0
  0
LINE
  5
61CE
  8
0
 10
288.0
 20
281.14284323383271
 30
0.0
 11
287.0
 21
281.14284323383271
 31
0.0
  0
LINE
  5
61CF
  8
0
 10
288.0
 20
274.14284323383271
 30
0.0
 11
286.0
 21
274.14284323383271
 31
0.0
  0
LINE
  5
61D0
  8
0
 10
288.0
 20
275.14284323383271
 30
0.0
 11
287.0
 21
275.14284323383271
 31
0.0
  0
LINE
  5
61D1
  8
0
 10
288.0
 20
276.14284323383259
 30
0.0
 11
287.0
 21
276.14284323383259
 31
0.0
  0
LINE
  5
61D2
  8
0
 10
288.0
 20
277.14284323383271
 30
0.0
 11
287.0
 21
277.14284323383271
 31
0.0
  0
LINE
  5
61D3
  8
0
 10
288.0
 20
278.14284323383259
 30
0.0
 11
287.0
 21
278.14284323383259
 31
0.0
  0
LINE
  5
61D4
  8
0
 10
288.0
 20
289.14284323383271
 30
0.0
 11
285.0
 21
289.14284323383271
 31
0.0
  0
LINE
  5
61D5
  8
0
 10
288.0
 20
284.14284323383271
 30
0.0
 11
286.0
 21
284.14284323383271
 31
0.0
  0
LINE
  5
61D6
  8
0
 10
288.0
 20
283.14284323383271
 30
0.0
 11
287.0
 21
283.14284323383271
 31
0.0
  0
LINE
  5
61D7
  8
0
 10
288.0
 20
285.14284323383271
 30
0.0
 11
287.0
 21
285.14284323383271
 31
0.0
  0
LINE
  5
61D8
  8
0
 10
288.0
 20
286.14284323383271
 30
0.0
 11
287.0
 21
286.14284323383271
 31
0.0
  0
LINE
  5
61D9
  8
0
 10
288.0
 20
287.14284323383271
 30
0.0
 11
287.0
 21
287.14284323383271
 31
0.0
  0
LINE
  5
61DA
  8
0
 10
288.0
 20
288.14284323383271
 30
0.0
 11
287.0
 21
288.14284323383271
 31
0.0
  0
LINE
  5
61DB
  8
0
 10
288.0
 20
291.14284323383271
 30
0.0
 11
287.0
 21
291.14284323383271
 31
0.0
  0
LINE
  5
61DC
  8
0
 10
288.0
 20
290.14284323383271
 30
0.0
 11
287.0
 21
290.14284323383271
 31
0.0
  0
LINE
  5
61DD
  8
0
 10
288.0
 20
299.14284323383271
 30
0.0
 11
285.0
 21
299.14284323383271
 31
0.0
  0
LINE
  5
61DE
  8
0
 10
288.0
 20
296.14284323383271
 30
0.0
 11
287.0
 21
296.14284323383271
 31
0.0
  0
LINE
  5
61DF
  8
0
 10
288.0
 20
297.14284323383271
 30
0.0
 11
287.0
 21
297.14284323383271
 31
0.0
  0
LINE
  5
61E0
  8
0
 10
288.0
 20
298.14284323383271
 30
0.0
 11
287.0
 21
298.14284323383271
 31
0.0
  0
LINE
  5
61E1
  8
0
 10
288.0
 20
294.14284323383271
 30
0.0
 11
286.0
 21
294.14284323383271
 31
0.0
  0
LINE
  5
61E2
  8
0
 10
288.0
 20
295.14284323383271
 30
0.0
 11
287.0
 21
295.14284323383271
 31
0.0
  0
LINE
  5
61E3
  8
0
 10
288.0
 20
293.14284323383271
 30
0.0
 11
287.0
 21
293.14284323383271
 31
0.0
  0
LINE
  5
61E4
  8
0
 10
288.0
 20
292.14284323383271
 30
0.0
 11
287.0
 21
292.14284323383271
 31
0.0
  0
LINE
  5
61E5
  8
0
 10
288.0
 20
305.14284323383271
 30
0.0
 11
287.0
 21
305.14284323383271
 31
0.0
  0
LINE
  5
61E6
  8
0
 10
288.0
 20
306.14284323383271
 30
0.0
 11
287.0
 21
306.14284323383271
 31
0.0
  0
LINE
  5
61E7
  8
0
 10
288.0
 20
307.14284323383271
 30
0.0
 11
287.0
 21
307.14284323383271
 31
0.0
  0
LINE
  5
61E8
  8
0
 10
288.0
 20
308.14284323383271
 30
0.0
 11
287.0
 21
308.14284323383271
 31
0.0
  0
LINE
  5
61E9
  8
0
 10
288.0
 20
304.14284323383271
 30
0.0
 11
286.0
 21
304.14284323383271
 31
0.0
  0
LINE
  5
61EA
  8
0
 10
288.0
 20
303.14284323383271
 30
0.0
 11
287.0
 21
303.14284323383271
 31
0.0
  0
LINE
  5
61EB
  8
0
 10
288.0
 20
302.14284323383271
 30
0.0
 11
287.0
 21
302.14284323383271
 31
0.0
  0
LINE
  5
61EC
  8
0
 10
288.0
 20
301.14284323383271
 30
0.0
 11
287.0
 21
301.14284323383271
 31
0.0
  0
LINE
  5
61ED
  8
0
 10
288.0
 20
300.14284323383271
 30
0.0
 11
287.0
 21
300.14284323383271
 31
0.0
  0
LINE
  5
61EE
  8
0
 10
288.0
 20
309.14284323383271
 30
0.0
 11
285.0
 21
309.14284323383271
 31
0.0
  0
LINE
  5
61EF
  8
0
 10
288.0
 20
314.14284323383271
 30
0.0
 11
286.0
 21
314.14284323383271
 31
0.0
  0
LINE
  5
61F0
  8
0
 10
288.0
 20
315.14284323383271
 30
0.0
 11
287.0
 21
315.14284323383271
 31
0.0
  0
LINE
  5
61F1
  8
0
 10
288.0
 20
316.14284323383271
 30
0.0
 11
287.0
 21
316.14284323383271
 31
0.0
  0
LINE
  5
61F2
  8
0
 10
288.0
 20
317.14284323383271
 30
0.0
 11
287.0
 21
317.14284323383271
 31
0.0
  0
LINE
  5
61F3
  8
0
 10
288.0
 20
312.14284323383271
 30
0.0
 11
287.0
 21
312.14284323383271
 31
0.0
  0
LINE
  5
61F4
  8
0
 10
288.0
 20
311.14284323383271
 30
0.0
 11
287.0
 21
311.14284323383271
 31
0.0
  0
LINE
  5
61F5
  8
0
 10
288.0
 20
310.14284323383271
 30
0.0
 11
287.0
 21
310.14284323383271
 31
0.0
  0
LINE
  5
61F6
  8
0
 10
288.0
 20
313.14284323383271
 30
0.0
 11
287.0
 21
313.14284323383271
 31
0.0
  0
LINE
  5
61F7
  8
0
 10
288.0
 20
319.14284323383271
 30
0.0
 11
285.0
 21
319.14284323383271
 31
0.0
  0
LINE
  5
61F8
  8
0
 10
288.0
 20
324.14284323383271
 30
0.0
 11
286.0
 21
324.14284323383271
 31
0.0
  0
LINE
  5
61F9
  8
0
 10
288.0
 20
323.14284323383271
 30
0.0
 11
287.0
 21
323.14284323383271
 31
0.0
  0
LINE
  5
61FA
  8
0
 10
288.0
 20
322.14284323383271
 30
0.0
 11
287.0
 21
322.14284323383271
 31
0.0
  0
LINE
  5
61FB
  8
0
 10
288.0
 20
325.14284323383271
 30
0.0
 11
287.0
 21
325.14284323383271
 31
0.0
  0
LINE
  5
61FC
  8
0
 10
288.0
 20
321.14284323383271
 30
0.0
 11
287.0
 21
321.14284323383271
 31
0.0
  0
LINE
  5
61FD
  8
0
 10
288.0
 20
320.14284323383271
 30
0.0
 11
287.0
 21
320.14284323383271
 31
0.0
  0
LINE
  5
61FE
  8
0
 10
288.0
 20
318.14284323383271
 30
0.0
 11
287.0
 21
318.14284323383271
 31
0.0
  0
LINE
  5
61FF
  8
0
 10
288.0
 20
329.14284323383271
 30
0.0
 11
285.0
 21
329.14284323383271
 31
0.0
  0
LINE
  5
6200
  8
0
 10
288.0
 20
334.14284323383271
 30
0.0
 11
286.0
 21
334.14284323383271
 31
0.0
  0
LINE
  5
6201
  8
0
 10
288.0
 20
333.14284323383271
 30
0.0
 11
287.0
 21
333.14284323383271
 31
0.0
  0
LINE
  5
6202
  8
0
 10
288.0
 20
332.14284323383271
 30
0.0
 11
287.0
 21
332.14284323383271
 31
0.0
  0
LINE
  5
6203
  8
0
 10
288.0
 20
331.14284323383271
 30
0.0
 11
287.0
 21
331.14284323383271
 31
0.0
  0
LINE
  5
6204
  8
0
 10
288.0
 20
326.14284323383271
 30
0.0
 11
287.0
 21
326.14284323383271
 31
0.0
  0
LINE
  5
6205
  8
0
 10
288.0
 20
327.14284323383271
 30
0.0
 11
287.0
 21
327.14284323383271
 31
0.0
  0
LINE
  5
6206
  8
0
 10
288.0
 20
328.14284323383271
 30
0.0
 11
287.0
 21
328.14284323383271
 31
0.0
  0
LINE
  5
6207
  8
0
 10
288.0
 20
330.14284323383271
 30
0.0
 11
287.0
 21
330.14284323383271
 31
0.0
  0
LINE
  5
6208
  8
0
 10
288.0
 20
339.14284323383271
 30
0.0
 11
285.0
 21
339.14284323383271
 31
0.0
  0
LINE
  5
6209
  8
0
 10
288.0
 20
343.14284323383271
 30
0.0
 11
287.0
 21
343.14284323383271
 31
0.0
  0
LINE
  5
620A
  8
0
 10
288.0
 20
342.14284323383271
 30
0.0
 11
287.0
 21
342.14284323383271
 31
0.0
  0
LINE
  5
620B
  8
0
 10
288.0
 20
341.14284323383271
 30
0.0
 11
287.0
 21
341.14284323383271
 31
0.0
  0
LINE
  5
620C
  8
0
 10
288.0
 20
340.14284323383271
 30
0.0
 11
287.0
 21
340.14284323383271
 31
0.0
  0
LINE
  5
620D
  8
0
 10
288.0
 20
337.14284323383271
 30
0.0
 11
287.0
 21
337.14284323383271
 31
0.0
  0
LINE
  5
620E
  8
0
 10
288.0
 20
335.14284323383271
 30
0.0
 11
287.0
 21
335.14284323383271
 31
0.0
  0
LINE
  5
620F
  8
0
 10
288.0
 20
336.14284323383271
 30
0.0
 11
287.0
 21
336.14284323383271
 31
0.0
  0
LINE
  5
6210
  8
0
 10
288.0
 20
338.14284323383271
 30
0.0
 11
287.0
 21
338.14284323383271
 31
0.0
  0
LINE
  5
6211
  8
0
 10
288.0
 20
349.14284323383271
 30
0.0
 11
285.0
 21
349.14284323383271
 31
0.0
  0
LINE
  5
6212
  8
0
 10
288.0
 20
350.14284323383271
 30
0.0
 11
287.0
 21
350.14284323383271
 31
0.0
  0
LINE
  5
6213
  8
0
 10
288.0
 20
351.14284323383271
 30
0.0
 11
287.0
 21
351.14284323383271
 31
0.0
  0
LINE
  5
6214
  8
0
 10
288.0
 20
352.14284323383271
 30
0.0
 11
287.0
 21
352.14284323383271
 31
0.0
  0
LINE
  5
6215
  8
0
 10
288.0
 20
348.14284323383271
 30
0.0
 11
287.0
 21
348.14284323383271
 31
0.0
  0
LINE
  5
6216
  8
0
 10
288.0
 20
344.14284323383271
 30
0.0
 11
286.0
 21
344.14284323383271
 31
0.0
  0
LINE
  5
6217
  8
0
 10
288.0
 20
345.14284323383271
 30
0.0
 11
287.0
 21
345.14284323383271
 31
0.0
  0
LINE
  5
6218
  8
0
 10
288.0
 20
347.14284323383271
 30
0.0
 11
287.0
 21
347.14284323383271
 31
0.0
  0
LINE
  5
6219
  8
0
 10
288.0
 20
346.14284323383271
 30
0.0
 11
287.0
 21
346.14284323383271
 31
0.0
  0
LINE
  5
621A
  8
0
 10
288.0
 20
359.14284323383271
 30
0.0
 11
285.0
 21
359.14284323383271
 31
0.0
  0
LINE
  5
621B
  8
0
 10
288.0
 20
358.14284323383271
 30
0.0
 11
287.0
 21
358.14284323383271
 31
0.0
  0
LINE
  5
621C
  8
0
 10
288.0
 20
357.14284323383271
 30
0.0
 11
287.0
 21
357.14284323383271
 31
0.0
  0
LINE
  5
621D
  8
0
 10
288.0
 20
353.14284323383271
 30
0.0
 11
287.0
 21
353.14284323383271
 31
0.0
  0
LINE
  5
621E
  8
0
 10
288.0
 20
354.14284323383271
 30
0.0
 11
286.0
 21
354.14284323383271
 31
0.0
  0
LINE
  5
621F
  8
0
 10
288.0
 20
356.14284323383271
 30
0.0
 11
287.0
 21
356.14284323383271
 31
0.0
  0
LINE
  5
6220
  8
0
 10
288.0
 20
355.14284323383271
 30
0.0
 11
287.0
 21
355.14284323383271
 31
0.0
  0
LINE
  5
6221
  8
0
 10
288.0
 20
360.14284323383271
 30
0.0
 11
287.0
 21
360.14284323383271
 31
0.0
  0
LINE
  5
6222
  8
0
 10
288.0
 20
369.14284323383271
 30
0.0
 11
285.0
 21
369.14284323383271
 31
0.0
  0
LINE
  5
6223
  8
0
 10
288.0
 20
368.14284323383271
 30
0.0
 11
287.0
 21
368.14284323383271
 31
0.0
  0
LINE
  5
6224
  8
0
 10
288.0
 20
367.14284323383271
 30
0.0
 11
287.0
 21
367.14284323383271
 31
0.0
  0
LINE
  5
6225
  8
0
 10
288.0
 20
366.14284323383271
 30
0.0
 11
287.0
 21
366.14284323383271
 31
0.0
  0
LINE
  5
6226
  8
0
 10
288.0
 20
365.14284323383271
 30
0.0
 11
287.0
 21
365.14284323383271
 31
0.0
  0
LINE
  5
6227
  8
0
 10
288.0
 20
364.14284323383271
 30
0.0
 11
286.0
 21
364.14284323383271
 31
0.0
  0
LINE
  5
6228
  8
0
 10
288.0
 20
361.14284323383271
 30
0.0
 11
287.0
 21
361.14284323383271
 31
0.0
  0
LINE
  5
6229
  8
0
 10
288.0
 20
362.14284323383271
 30
0.0
 11
287.0
 21
362.14284323383271
 31
0.0
  0
LINE
  5
622A
  8
0
 10
288.0
 20
363.14284323383271
 30
0.0
 11
287.0
 21
363.14284323383271
 31
0.0
  0
LINE
  5
622B
  8
0
 10
288.0
 20
378.14284323383271
 30
0.0
 11
287.0
 21
378.14284323383271
 31
0.0
  0
LINE
  5
622C
  8
0
 10
288.0
 20
377.14284323383271
 30
0.0
 11
287.0
 21
377.14284323383271
 31
0.0
  0
LINE
  5
622D
  8
0
 10
288.0
 20
376.14284323383271
 30
0.0
 11
287.0
 21
376.14284323383271
 31
0.0
  0
LINE
  5
622E
  8
0
 10
288.0
 20
375.14284323383271
 30
0.0
 11
287.0
 21
375.14284323383271
 31
0.0
  0
LINE
  5
622F
  8
0
 10
288.0
 20
372.14284323383271
 30
0.0
 11
287.0
 21
372.14284323383271
 31
0.0
  0
LINE
  5
6230
  8
0
 10
288.0
 20
373.14284323383271
 30
0.0
 11
287.0
 21
373.14284323383271
 31
0.0
  0
LINE
  5
6231
  8
0
 10
288.0
 20
374.14284323383271
 30
0.0
 11
286.0
 21
374.14284323383271
 31
0.0
  0
LINE
  5
6232
  8
0
 10
288.0
 20
370.14284323383271
 30
0.0
 11
287.0
 21
370.14284323383271
 31
0.0
  0
LINE
  5
6233
  8
0
 10
288.0
 20
371.14284323383271
 30
0.0
 11
287.0
 21
371.14284323383271
 31
0.0
  0
LINE
  5
6234
  8
0
 10
288.0
 20
379.14284323383271
 30
0.0
 11
285.0
 21
379.14284323383271
 31
0.0
  0
LINE
  5
6235
  8
0
 10
288.0
 20
381.14284323383271
 30
0.0
 11
287.0
 21
381.14284323383271
 31
0.0
  0
LINE
  5
6236
  8
0
 10
288.0
 20
382.14284323383271
 30
0.0
 11
287.0
 21
382.14284323383271
 31
0.0
  0
LINE
  5
6237
  8
0
 10
288.0
 20
386.14284323383271
 30
0.0
 11
287.0
 21
386.14284323383271
 31
0.0
  0
LINE
  5
6238
  8
0
 10
288.0
 20
385.14284323383271
 30
0.0
 11
287.0
 21
385.14284323383271
 31
0.0
  0
LINE
  5
6239
  8
0
 10
288.0
 20
383.14284323383271
 30
0.0
 11
287.0
 21
383.14284323383271
 31
0.0
  0
LINE
  5
623A
  8
0
 10
288.0
 20
384.14284323383271
 30
0.0
 11
286.0
 21
384.14284323383271
 31
0.0
  0
LINE
  5
623B
  8
0
 10
288.0
 20
380.14284323383271
 30
0.0
 11
287.0
 21
380.14284323383271
 31
0.0
  0
LINE
  5
623C
  8
0
 10
288.0
 20
389.14284323383271
 30
0.0
 11
285.0
 21
389.14284323383271
 31
0.0
  0
LINE
  5
623D
  8
0
 10
288.0
 20
390.14284323383271
 30
0.0
 11
287.0
 21
390.14284323383271
 31
0.0
  0
LINE
  5
623E
  8
0
 10
288.0
 20
391.14284323383271
 30
0.0
 11
287.0
 21
391.14284323383271
 31
0.0
  0
LINE
  5
623F
  8
0
 10
288.0
 20
392.14284323383271
 30
0.0
 11
287.0
 21
392.14284323383271
 31
0.0
  0
LINE
  5
6240
  8
0
 10
288.0
 20
393.14284323383271
 30
0.0
 11
287.0
 21
393.14284323383271
 31
0.0
  0
LINE
  5
6241
  8
0
 10
288.0
 20
395.14284323383271
 30
0.0
 11
287.0
 21
395.14284323383271
 31
0.0
  0
LINE
  5
6242
  8
0
 10
288.0
 20
394.14284323383271
 30
0.0
 11
286.0
 21
394.14284323383271
 31
0.0
  0
LINE
  5
6243
  8
0
 10
288.0
 20
388.14284323383271
 30
0.0
 11
287.0
 21
388.14284323383271
 31
0.0
  0
LINE
  5
6244
  8
0
 10
288.0
 20
387.14284323383271
 30
0.0
 11
287.0
 21
387.14284323383271
 31
0.0
  0
LINE
  5
6245
  8
0
 10
288.0
 20
399.14284323383271
 30
0.0
 11
285.0
 21
399.14284323383271
 31
0.0
  0
LINE
  5
6246
  8
0
 10
288.0
 20
398.14284323383271
 30
0.0
 11
287.0
 21
398.14284323383271
 31
0.0
  0
LINE
  5
6247
  8
0
 10
288.0
 20
397.14284323383271
 30
0.0
 11
287.0
 21
397.14284323383271
 31
0.0
  0
LINE
  5
6248
  8
0
 10
288.0
 20
400.14284323383271
 30
0.0
 11
287.0
 21
400.14284323383271
 31
0.0
  0
LINE
  5
6249
  8
0
 10
288.0
 20
401.14284323383271
 30
0.0
 11
287.0
 21
401.14284323383271
 31
0.0
  0
LINE
  5
624A
  8
0
 10
288.0
 20
402.14284323383282
 30
0.0
 11
287.0
 21
402.14284323383282
 31
0.0
  0
LINE
  5
624B
  8
0
 10
288.0
 20
403.14284323383271
 30
0.0
 11
287.0
 21
403.14284323383271
 31
0.0
  0
LINE
  5
624C
  8
0
 10
288.0
 20
404.14284323383271
 30
0.0
 11
286.0
 21
404.14284323383271
 31
0.0
  0
LINE
  5
624D
  8
0
 10
288.0
 20
396.14284323383271
 30
0.0
 11
287.0
 21
396.14284323383271
 31
0.0
  0
LINE
  5
624E
  8
0
 10
288.0
 20
409.14284323383271
 30
0.0
 11
285.0
 21
409.14284323383271
 31
0.0
  0
LINE
  5
624F
  8
0
 10
288.0
 20
413.14284323383271
 30
0.0
 11
287.0
 21
413.14284323383271
 31
0.0
  0
LINE
  5
6250
  8
0
 10
288.0
 20
408.14284323383271
 30
0.0
 11
287.0
 21
408.14284323383271
 31
0.0
  0
LINE
  5
6251
  8
0
 10
288.0
 20
407.14284323383271
 30
0.0
 11
287.0
 21
407.14284323383271
 31
0.0
  0
LINE
  5
6252
  8
0
 10
288.0
 20
406.14284323383282
 30
0.0
 11
287.0
 21
406.14284323383282
 31
0.0
  0
LINE
  5
6253
  8
0
 10
288.0
 20
405.14284323383271
 30
0.0
 11
287.0
 21
405.14284323383271
 31
0.0
  0
LINE
  5
6254
  8
0
 10
288.0
 20
410.14284323383282
 30
0.0
 11
287.0
 21
410.14284323383282
 31
0.0
  0
LINE
  5
6255
  8
0
 10
288.0
 20
411.14284323383271
 30
0.0
 11
287.0
 21
411.14284323383271
 31
0.0
  0
LINE
  5
6256
  8
0
 10
288.0
 20
412.14284323383271
 30
0.0
 11
287.0
 21
412.14284323383271
 31
0.0
  0
LINE
  5
6257
  8
0
 10
288.0
 20
419.14284323383271
 30
0.0
 11
285.0
 21
419.14284323383271
 31
0.0
  0
LINE
  5
6258
  8
0
 10
288.0
 20
418.14284323383271
 30
0.0
 11
287.0
 21
418.14284323383271
 31
0.0
  0
LINE
  5
6259
  8
0
 10
288.0
 20
417.14284323383271
 30
0.0
 11
287.0
 21
417.14284323383271
 31
0.0
  0
LINE
  5
625A
  8
0
 10
288.0
 20
416.14284323383271
 30
0.0
 11
287.0
 21
416.14284323383271
 31
0.0
  0
LINE
  5
625B
  8
0
 10
288.0
 20
415.14284323383271
 30
0.0
 11
287.0
 21
415.14284323383271
 31
0.0
  0
LINE
  5
625C
  8
0
 10
288.0
 20
420.14284323383271
 30
0.0
 11
287.0
 21
420.14284323383271
 31
0.0
  0
LINE
  5
625D
  8
0
 10
288.0
 20
421.14284323383271
 30
0.0
 11
287.0
 21
421.14284323383271
 31
0.0
  0
LINE
  5
625E
  8
0
 10
288.0
 20
414.14284323383282
 30
0.0
 11
286.0
 21
414.14284323383282
 31
0.0
  0
LINE
  5
625F
  8
0
 10
288.0
 20
429.14284323383271
 30
0.0
 11
285.0
 21
429.14284323383271
 31
0.0
  0
LINE
  5
6260
  8
0
 10
288.0
 20
430.14284323383271
 30
0.0
 11
287.0
 21
430.14284323383271
 31
0.0
  0
LINE
  5
6261
  8
0
 10
288.0
 20
425.14284323383271
 30
0.0
 11
287.0
 21
425.14284323383271
 31
0.0
  0
LINE
  5
6262
  8
0
 10
288.0
 20
422.14284323383271
 30
0.0
 11
287.0
 21
422.14284323383271
 31
0.0
  0
LINE
  5
6263
  8
0
 10
288.0
 20
423.14284323383271
 30
0.0
 11
287.0
 21
423.14284323383271
 31
0.0
  0
LINE
  5
6264
  8
0
 10
288.0
 20
428.14284323383271
 30
0.0
 11
287.0
 21
428.14284323383271
 31
0.0
  0
LINE
  5
6265
  8
0
 10
288.0
 20
427.14284323383282
 30
0.0
 11
287.0
 21
427.14284323383282
 31
0.0
  0
LINE
  5
6266
  8
0
 10
288.0
 20
426.14284323383271
 30
0.0
 11
287.0
 21
426.14284323383271
 31
0.0
  0
LINE
  5
6267
  8
0
 10
288.0
 20
424.14284323383271
 30
0.0
 11
286.0
 21
424.14284323383271
 31
0.0
  0
LINE
  5
6268
  8
0
 10
288.0
 20
439.14284323383282
 30
0.0
 11
285.0
 21
439.14284323383282
 31
0.0
  0
LINE
  5
6269
  8
0
 10
288.0
 20
438.14284323383271
 30
0.0
 11
287.0
 21
438.14284323383271
 31
0.0
  0
LINE
  5
626A
  8
0
 10
288.0
 20
436.14284323383271
 30
0.0
 11
287.0
 21
436.14284323383271
 31
0.0
  0
LINE
  5
626B
  8
0
 10
288.0
 20
435.14284323383282
 30
0.0
 11
287.0
 21
435.14284323383282
 31
0.0
  0
LINE
  5
626C
  8
0
 10
288.0
 20
431.14284323383282
 30
0.0
 11
287.0
 21
431.14284323383282
 31
0.0
  0
LINE
  5
626D
  8
0
 10
288.0
 20
432.14284323383271
 30
0.0
 11
287.0
 21
432.14284323383271
 31
0.0
  0
LINE
  5
626E
  8
0
 10
288.0
 20
433.14284323383271
 30
0.0
 11
287.0
 21
433.14284323383271
 31
0.0
  0
LINE
  5
626F
  8
0
 10
288.0
 20
437.14284323383271
 30
0.0
 11
287.0
 21
437.14284323383271
 31
0.0
  0
LINE
  5
6270
  8
0
 10
288.0
 20
434.14284323383271
 30
0.0
 11
286.0
 21
434.14284323383271
 31
0.0
  0
LINE
  5
6271
  8
0
 10
288.0
 20
446.14284323383271
 30
0.0
 11
287.0
 21
446.14284323383271
 31
0.0
  0
LINE
  5
6272
  8
0
 10
288.0
 20
447.14284323383271
 30
0.0
 11
287.0
 21
447.14284323383271
 31
0.0
  0
LINE
  5
6273
  8
0
 10
288.0
 20
445.14284323383271
 30
0.0
 11
287.0
 21
445.14284323383271
 31
0.0
  0
LINE
  5
6274
  8
0
 10
288.0
 20
440.14284323383271
 30
0.0
 11
287.0
 21
440.14284323383271
 31
0.0
  0
LINE
  5
6275
  8
0
 10
288.0
 20
441.14284323383271
 30
0.0
 11
287.0
 21
441.14284323383271
 31
0.0
  0
LINE
  5
6276
  8
0
 10
288.0
 20
442.14284323383271
 30
0.0
 11
287.0
 21
442.14284323383271
 31
0.0
  0
LINE
  5
6277
  8
0
 10
288.0
 20
443.14284323383282
 30
0.0
 11
287.0
 21
443.14284323383282
 31
0.0
  0
LINE
  5
6278
  8
0
 10
288.0
 20
444.14284323383271
 30
0.0
 11
286.0
 21
444.14284323383271
 31
0.0
  0
LINE
  5
6279
  8
0
 10
288.0
 20
449.14284323383271
 30
0.0
 11
285.0
 21
449.14284323383271
 31
0.0
  0
LINE
  5
627A
  8
0
 10
288.0
 20
455.14284323383271
 30
0.0
 11
287.0
 21
455.14284323383271
 31
0.0
  0
LINE
  5
627B
  8
0
 10
288.0
 20
456.14284323383282
 30
0.0
 11
287.0
 21
456.14284323383282
 31
0.0
  0
LINE
  5
627C
  8
0
 10
288.0
 20
454.14284323383271
 30
0.0
 11
286.0
 21
454.14284323383271
 31
0.0
  0
LINE
  5
627D
  8
0
 10
288.0
 20
448.14284323383271
 30
0.0
 11
287.0
 21
448.14284323383271
 31
0.0
  0
LINE
  5
627E
  8
0
 10
288.0
 20
453.14284323383271
 30
0.0
 11
287.0
 21
453.14284323383271
 31
0.0
  0
LINE
  5
627F
  8
0
 10
288.0
 20
452.14284323383282
 30
0.0
 11
287.0
 21
452.14284323383282
 31
0.0
  0
LINE
  5
6280
  8
0
 10
288.0
 20
451.14284323383271
 30
0.0
 11
287.0
 21
451.14284323383271
 31
0.0
  0
LINE
  5
6281
  8
0
 10
288.0
 20
450.14284323383271
 30
0.0
 11
287.0
 21
450.14284323383271
 31
0.0
  0
LINE
  5
6282
  8
0
 10
288.0
 20
457.14284323383271
 30
0.0
 11
287.0
 21
457.14284323383271
 31
0.0
  0
LINE
  5
6283
  8
0
 10
288.0
 20
458.14284323383271
 30
0.0
 11
287.0
 21
458.14284323383271
 31
0.0
  0
POLYLINE
  5
6284
  8
0
 66
     1
 10
0.0
 20
0.0
 30
0.0
 70
     1
  0
VERTEX
  5
6AC3
  8
0
 10
9.9999999999999432
 20
9.1428432338327656
 30
0.0
  0
VERTEX
  5
6AC4
  8
0
 10
288.0
 20
9.1428432338327656
 30
0.0
  0
VERTEX
  5
6AC5
  8
0
 10
288.0
 20
154.14284323383271
 30
0.0
  0
VERTEX
  5
6AC6
  8
0
 10
9.9999999999999432
 20
154.14284323383271
 30
0.0
  0
SEQEND
  5
6AC7
  8
0
  0
TEXT
  5
628A
  8
0
 10
138.10298273989741
 20
135.1183486693169
 30
0.0
 40
3.0
  1
ケーシング下端深度
 11
138.10298273989741
 21
136.6183486693169
 31
0.0
 73
     2
  0
TEXT
  5
628B
  8
0
 10
138.10298273989741
 20
57.518765303163669
 30
0.0
 40
2.5
  1
崩壊、逸水、湧水、その他
 11
138.10298273989741
 21
58.768765303163669
 31
0.0
 73
     2
  0
TEXT
  5
628C
  8
0
 10
138.10298273989741
 20
62.998765303163673
 30
0.0
 40
3.0
  1
孔壁保護の実施理由
 11
138.10298273989741
 21
64.49876530316368
 31
0.0
 73
     2
  0
TEXT
  5
628D
  8
0
 10
138.10298273989741
 20
119.54294929107139
 30
0.0
 40
2.5
  1
作業終了時の深度を記す
 11
138.10298273989741
 21
120.79294929107139
 31
0.0
 73
     2
  0
TEXT
  5
628E
  8
0
 10
138.10298273989741
 20
128.78523320705591
 30
0.0
 40
2.5
  1
1作業日毎に記す
 11
138.10298273989741
 21
130.03523320705591
 31
0.0
 73
     2
  0
TEXT
  5
628F
  8
0
 10
138.10298273989741
 20
123.90834866931679
 30
0.0
 40
2.5
  1
ケーシング下端深度は
 11
138.10298273989741
 21
125.15834866931679
 31
0.0
 73
     2
  0
TEXT
  5
6290
  8
0
 10
138.10298273989741
 20
139.48650310664451
 30
0.0
 40
3.0
  1
作業日毎の孔内水位
 11
138.10298273989741
 21
140.98650310664459
 31
0.0
 73
     2
  0
TEXT
  5
6291
  8
0
 10
138.10298273989741
 20
105.86190702442551
 30
0.0
 40
3.0
  1
孔壁保護の種類
 11
138.10298273989741
 21
107.36190702442551
 31
0.0
 73
     2
  0
TEXT
  5
6292
  8
0
 10
25.647063048253528
 20
21.896728298042941
 30
0.0
 40
2.5
  1
スライムも含む（記事欄に理由を書く）
 11
25.647063048253528
 21
23.146728298042941
 31
0.0
 73
     2
  0
TEXT
  5
6293
  8
0
 10
25.647063048253528
 20
27.12272829804294
 30
0.0
 40
2.5
  1
コアの採取ができないもの
 11
25.647063048253528
 21
28.37272829804294
 31
0.0
 73
     2
  0
TEXT
  5
6294
  8
0
 10
25.647063048253528
 20
38.785233207056081
 30
0.0
 40
2.5
  1
主として粘土状のもの
 11
25.647063048253528
 21
40.035233207056081
 31
0.0
 73
     2
  0
TEXT
  5
6295
  8
0
 10
25.647063048253528
 20
78.232614987147699
 30
0.0
 40
2.5
  1
の一部が認められるもの
 11
25.647063048253528
 21
79.482614987147699
 31
0.0
 73
     2
  0
TEXT
  5
6296
  8
0
 10
25.647063048253528
 20
83.295295855473455
 30
0.0
 40
2.5
  1
片状コアでかつコアの外周
 11
25.647063048253528
 21
84.545295855473455
 31
0.0
 73
     2
  0
TEXT
  5
6297
  8
0
 10
25.647063048253528
 20
68.785233207056081
 30
0.0
 40
2.5
  1
主として角れき状のもの
 11
25.647063048253528
 21
70.035233207056081
 31
0.0
 73
     2
  0
TEXT
  5
6298
  8
0
 10
25.647063048253528
 20
88.521289811580118
 30
0.0
 40
2.5
  1
長さが5cm以下の棒状～
 11
25.647063048253528
 21
89.771289811580118
 31
0.0
 73
     2
  0
TEXT
  5
6299
  8
0
 10
25.647063048253528
 20
101.25431336665019
 30
0.0
 40
2.5
  1
長さが15～5cmの棒状～
 11
25.647063048253528
 21
102.50431336665019
 31
0.0
 73
     2
  0
TEXT
  5
629A
  8
0
 10
25.647063048253528
 20
113.785233207056
 30
0.0
 40
2.5
  1
長さが50～15cmの棒状コア
 11
25.647063048253528
 21
115.035233207056
 31
0.0
 73
     2
  0
TEXT
  5
629B
  8
0
 10
25.647063048253528
 20
128.78523320705591
 30
0.0
 40
2.5
  1
長さが50cm以上の棒状コア
 11
25.647063048253528
 21
130.03523320705591
 31
0.0
 73
     2
  0
INSERT
  5
629C
  8
0
  2
*X0
 10
0.0
 20
0.0
 30
0.0
1001
ACAD
1000
HATCH
1002
{
1070
    19
1000
AR-SAND
1040
0.02
1040
0.0
1000
R14_HATCH_DATA
1000
5973
1011
1.0
1021
0.0
1031
0.0
1021
0.0
1031
0.0
1011
0.0
1021
0.0
1031
0.0
1021
1.0
1031
0.0
1011
0.0
1021
0.0
1031
0.0
1021
0.0
1031
1.0
1040
0.0
1010
0.0
1020
0.0
1030
1.0
1000
AR-SAND
1070
     0
1070
     0
1071
        3
1071
        7
1070
     1
1070
     1
1071
        4
1040
21.647063048253639
1040
55.048641925933197
1040
-1.0
1040
18.647063048253511
1040
55.048641925933161
1040
0.0
1040
18.647063048253511
1040
50.035233207056073
1040
0.0
1040
21.647063048253742
1040
50.035233207056102
1040
0.0
1071
        0
1071
        7
1070
     1
1070
     1
1071
        4
1040
21.647063048253511
1040
60.035233207056073
1040
0.0
1040
18.647063048253511
1040
60.035233207056073
1040
0.0
1040
18.647063048253511
1040
55.048641925933161
1040
-1.0
1040
21.647063048253639
1040
55.048641925933197
1040
0.0
1071
        0
1071
      137
1071
        4
1070
     1
1040
18.390717870588539
1040
53.678083550298652
1040
21.90340822591849
1040
53.678083550298652
1070
     1
1040
21.90340822591849
1040
53.678083550298652
1040
21.90340822591849
1040
56.419200301567713
1070
     1
1040
21.90340822591849
1040
56.419200301567713
1040
18.390717870588539
1040
56.419200301567713
1070
     1
1040
18.390717870588539
1040
56.419200301567713
1040
18.390717870588539
1040
53.678083550298652
1071
        0
1070
     0
1070
     1
1040
0.0
1040
0.02
1070
     0
1070
     4
1040
0.6544984694978738
1040
6.5824899347211954
1040
-21.43770575382041
1040
-0.0320006259196809
1040
0.9788264746586847
1070
     6
1040
0.0
1040
-0.7721600000000001
1040
0.0
1040
-0.8636000000000002
1040
0.0
1040
-0.8255
1040
0.1308996938995747
1040
6.5824899347211954
1040
-21.43770575382041
1040
0.8990465662760053
1040
1.433650201136708
1070
     6
1040
0.0
1040
-0.4165600000000002
1040
0.0
1040
-0.69596
1040
0.0
1040
-0.2667000000000001
1040
5.715953300281428
1040
5.9576499347211884
1040
-21.43770575382041
1040
1.581984740482915
1040
0.0028743693570914
1070
     6
1040
0.0
1040
-0.254
1040
0.0
1040
-0.9144
1040
0.0
1040
-1.1937999999999991
1040
5.5414203750819961
1040
5.9576499347211884
1040
-21.43770575382041
1040
1.5271129049445931
1040
0.4458586465144326
1070
     6
1040
0.0
1040
-0.127
1040
0.0
1040
-0.59944
1040
0.0
1040
-0.6858
1040
0.0228990998451284
1071
        2
1040
19.785330770216142
1040
51.7808909866677
1040
0.0
1040
19.876965288891991
1040
57.253776867450583
1040
0.0
1002
}
  0
CIRCLE
  5
629D
  8
0
 10
20.147063048253511
 20
55.048641925933161
 30
0.0
 40
1.5
  0
TEXT
  5
629E
  8
0
 10
25.647063048253528
 20
53.785233207056073
 30
0.0
 40
2.5
  1
主として砂状のもの
 11
25.647063048253528
 21
55.035233207056073
 31
0.0
 73
     2
  0
LINE
  5
629F
  8
0
 10
17.647063048253511
 20
60.035233207056073
 30
0.0
 11
17.647063048253511
 21
50.035233207056073
 31
0.0
  0
LINE
  5
62A0
  8
0
 10
22.647063048253511
 20
60.035233207056073
 30
0.0
 11
22.647063048253511
 21
50.035233207056073
 31
0.0
  0
LINE
  5
62A1
  8
0
 10
18.647063048253511
 20
60.035233207056073
 30
0.0
 11
18.647063048253511
 21
50.035233207056073
 31
0.0
  0
LINE
  5
62A2
  8
0
 10
21.647063048253511
 20
60.035233207056073
 30
0.0
 11
21.647063048253742
 21
50.035233207056073
 31
0.0
  0
POLYLINE
  5
62A3
  8
0
 66
     1
 10
0.0
 20
0.0
 30
0.0
 70
     1
  0
VERTEX
  5
6AC8
  8
0
 10
18.647063048253511
 20
50.035233207056073
 30
0.0
  0
VERTEX
  5
6AC9
  8
0
 10
21.647063048253511
 20
50.035233207056073
 30
0.0
  0
VERTEX
  5
6ACA
  8
0
 10
21.647063048253511
 20
60.035233207056073
 30
0.0
  0
VERTEX
  5
6ACB
  8
0
 10
18.647063048253511
 20
60.035233207056073
 30
0.0
  0
SEQEND
  5
6ACC
  8
0
  0
CIRCLE
  5
62A9
  8
0
 10
20.147063048253511
 20
25.048641925933161
 30
0.0
 40
1.5
  0
CIRCLE
  5
62AA
  8
0
 10
20.147063048253511
 20
40.048641925933147
 30
0.0
 40
1.5
  0
LINE
  5
62AB
  8
0
 10
20.647063048253472
 20
45.035233207056073
 30
0.0
 11
21.647063048253511
 21
45.035233207056073
 31
0.0
  0
LINE
  5
62AC
  8
0
 10
19.647063048253528
 20
44.035233207056073
 30
0.0
 11
21.143182696511872
 21
44.035233207056073
 31
0.0
  0
LINE
  5
62AD
  8
0
 10
20.647063048253472
 20
37.035233207056081
 30
0.0
 11
21.647063048253511
 21
37.035233207056081
 31
0.0
  0
LINE
  5
62AE
  8
0
 10
20.647063048253472
 20
43.035233207056073
 30
0.0
 11
21.647063048253511
 21
43.035233207056073
 31
0.0
  0
LINE
  5
62AF
  8
0
 10
19.647063048253528
 20
36.035233207056081
 30
0.0
 11
21.143182696511872
 21
36.035233207056081
 31
0.0
  0
LINE
  5
62B0
  8
0
 10
19.647063048253528
 20
38.035233207056081
 30
0.0
 11
21.143182696511872
 21
38.035233207056081
 31
0.0
  0
LINE
  5
62B1
  8
0
 10
19.647063048253528
 20
42.035233207056081
 30
0.0
 11
21.143182696511872
 21
42.035233207056081
 31
0.0
  0
LINE
  5
62B2
  8
0
 10
20.647063048253472
 20
35.035233207056081
 30
0.0
 11
21.647063048253511
 21
35.035233207056081
 31
0.0
  0
LINE
  5
62B3
  8
0
 10
17.647063048253511
 20
45.035233207056073
 30
0.0
 11
17.647063048253511
 21
35.035233207056081
 31
0.0
  0
LINE
  5
62B4
  8
0
 10
18.647063048253511
 20
45.035233207056073
 30
0.0
 11
18.647063048253511
 21
35.035233207056081
 31
0.0
  0
LINE
  5
62B5
  8
0
 10
17.647063048253511
 20
30.035233207056081
 30
0.0
 11
17.647063048253511
 21
20.035233207056081
 31
0.0
  0
LINE
  5
62B6
  8
0
 10
18.647063048253511
 20
36.035233207056081
 30
0.0
 11
19.143182696511921
 21
36.035233207056081
 31
0.0
  0
LINE
  5
62B7
  8
0
 10
18.647063048253511
 20
35.035233207056081
 30
0.0
 11
20.143182696511872
 21
35.035233207056081
 31
0.0
  0
LINE
  5
62B8
  8
0
 10
18.647063048253511
 20
44.035233207056073
 30
0.0
 11
19.143182696511921
 21
44.035233207056073
 31
0.0
  0
LINE
  5
62B9
  8
0
 10
18.647063048253511
 20
38.035233207056081
 30
0.0
 11
19.143182696511921
 21
38.035233207056081
 31
0.0
  0
LINE
  5
62BA
  8
0
 10
18.647063048253511
 20
40.035233207056081
 30
0.0
 11
18.6471229806981
 21
40.035233207056081
 31
0.0
  0
LINE
  5
62BB
  8
0
 10
18.647063048253511
 20
42.035233207056081
 30
0.0
 11
19.143182696511921
 21
42.035233207056081
 31
0.0
  0
LINE
  5
62BC
  8
0
 10
18.647063048253511
 20
37.035233207056081
 30
0.0
 11
20.143182696511872
 21
37.035233207056081
 31
0.0
  0
LINE
  5
62BD
  8
0
 10
18.647063048253511
 20
39.035233207056081
 30
0.0
 11
19.041168492473489
 21
39.035233207056081
 31
0.0
  0
LINE
  5
62BE
  8
0
 10
18.647063048253511
 20
41.035233207056059
 30
0.0
 11
19.01717914093728
 21
41.035233207056059
 31
0.0
  0
LINE
  5
62BF
  8
0
 10
18.647063048253511
 20
43.035233207056073
 30
0.0
 11
20.143182696511872
 21
43.035233207056073
 31
0.0
  0
LINE
  5
62C0
  8
0
 10
18.647063048253511
 20
45.035233207056073
 30
0.0
 11
20.143182696511872
 21
45.035233207056073
 31
0.0
  0
LINE
  5
62C1
  8
0
 10
22.647063048253511
 20
45.035233207056073
 30
0.0
 11
22.647063048253511
 21
35.035233207056081
 31
0.0
  0
LINE
  5
62C2
  8
0
 10
21.647063048253511
 20
45.035233207056073
 30
0.0
 11
21.647063048253742
 21
35.035233207056081
 31
0.0
  0
LINE
  5
62C3
  8
0
 10
22.647063048253511
 20
30.035233207056081
 30
0.0
 11
22.647063048253511
 21
20.035233207056081
 31
0.0
  0
LINE
  5
62C4
  8
0
 10
21.252957604033551
 20
39.035233207056081
 30
0.0
 11
21.647063048253511
 21
39.035233207056081
 31
0.0
  0
LINE
  5
62C5
  8
0
 10
21.276946955569759
 20
41.035233207056059
 30
0.0
 11
21.647063048253511
 21
41.035233207056059
 31
0.0
  0
TEXT
  5
62C6
  8
0
 10
25.647063048253528
 20
96.02831941054356
 30
0.0
 40
2.5
  1
片状コア
 11
25.647063048253528
 21
97.27831941054356
 31
0.0
 73
     2
  0
LINE
  5
62C7
  8
0
 10
18.613926338660558
 20
88.958797046427279
 30
0.0
 11
18.613926338660558
 21
87.203028276931079
 31
0.0
  0
LINE
  5
62C8
  8
0
 10
21.647063048253742
 20
88.203028276931136
 30
0.0
 11
21.647063048253742
 21
89.975365401223854
 31
0.0
  0
POLYLINE
  5
62C9
  8
0
 66
     1
 10
0.0
 20
0.0
 30
0.0
 70
     1
  0
VERTEX
  5
6ACD
  8
0
 10
20.516663255603579
 20
89.089196839077488
 30
0.0
  0
VERTEX
  5
6ACE
  8
0
 10
19.630494693457191
 20
89.975365401223854
 30
0.0
  0
VERTEX
  5
6ACF
  8
0
 10
18.744326131310778
 20
89.089196839077488
 30
0.0
  0
VERTEX
  5
6AD0
  8
0
 10
19.630494693457191
 20
88.203028276931136
 30
0.0
  0
SEQEND
  5
6AD1
  8
0
  0
POLYLINE
  5
62CF
  8
0
 66
     1
 10
0.0
 20
0.0
 30
0.0
  0
VERTEX
  5
6AD2
  8
0
 10
21.647063048253742
 20
89.975365401223854
 30
0.0
  0
VERTEX
  5
6AD3
  8
0
 10
20.7608944861074
 20
89.089196839077488
 30
0.0
  0
VERTEX
  5
6AD4
  8
0
 10
21.647063048253742
 20
88.203028276931136
 30
0.0
  0
SEQEND
  5
6AD5
  8
0
  0
POLYLINE
  5
62D4
  8
0
 66
     1
 10
0.0
 20
0.0
 30
0.0
 70
     1
  0
VERTEX
  5
6AD6
  8
0
 10
21.524947433001831
 20
88.080912661679179
 30
0.0
  0
VERTEX
  5
6AD7
  8
0
 10
20.638778870855429
 20
87.194744099532812
 30
0.0
  0
VERTEX
  5
6AD8
  8
0
 10
19.752610308709102
 20
88.080912661679179
 30
0.0
  0
VERTEX
  5
6AD9
  8
0
 10
20.638778870855429
 20
88.967081223825545
 30
0.0
  0
SEQEND
  5
6ADA
  8
0
  0
POLYLINE
  5
62DA
  8
0
 66
     1
 10
0.0
 20
0.0
 30
0.0
  0
VERTEX
  5
6ADB
  8
0
 10
18.613926338660558
 20
88.958797046427279
 30
0.0
  0
VERTEX
  5
6ADC
  8
0
 10
18.622210516058871
 20
88.967081223825545
 30
0.0
  0
VERTEX
  5
6ADD
  8
0
 10
19.50837907820528
 20
88.080912661679179
 30
0.0
  0
VERTEX
  5
6ADE
  8
0
 10
18.622210516058871
 20
87.194744099532812
 30
0.0
  0
VERTEX
  5
6ADF
  8
0
 10
18.613926338660558
 20
87.203028276931079
 30
0.0
  0
SEQEND
  5
6AE0
  8
0
  0
LINE
  5
62E1
  8
0
 10
22.647063048253511
 20
90.035233207056095
 30
0.0
 11
22.647063048253511
 21
80.035233207056095
 31
0.0
  0
LINE
  5
62E2
  8
0
 10
17.647063048253511
 20
90.035233207056095
 30
0.0
 11
17.647063048253511
 21
80.035233207056095
 31
0.0
  0
INSERT
  5
62E3
  8
0
  2
*X1
 10
0.0
 20
0.0
 30
0.0
1001
ACAD
1000
HATCH
1002
{
1070
    19
1000
NET3
1040
0.25
1040
0.0
1000
R14_HATCH_DATA
1000
59A3
1011
1.0
1021
0.0
1031
0.0
1021
0.0
1031
0.0
1011
0.0
1021
0.0
1031
0.0
1021
1.0
1031
0.0
1011
0.0
1021
0.0
1031
0.0
1021
0.0
1031
1.0
1040
0.0
1010
0.0
1020
0.0
1030
1.0
1000
NET3
1070
     0
1070
     0
1071
        2
1071
        7
1070
     1
1070
     1
1071
        4
1040
21.647063048253511
1040
75.035233207056081
1040
0.0
1040
18.647063048253511
1040
75.035233207056081
1040
0.0
1040
18.647063048253511
1040
70.048641925933154
1040
-1.0
1040
21.647063048253511
1040
70.048641925933154
1040
0.0
1071
        0
1071
        7
1070
     1
1070
     1
1071
        4
1040
21.647063048253511
1040
70.048641925933154
1040
-1.0
1040
18.647063048253511
1040
70.048641925933154
1040
0.0
1040
18.647063048253511
1040
65.035233207056081
1040
0.0
1040
21.647063048253511
1040
65.035233207056081
1040
0.0
1071
        0
1070
     0
1070
     1
1040
0.0
1040
0.25
1070
     0
1070
     3
1040
0.0
1040
6.5824899347211954
1040
-21.43770575382041
1040
0.0
1040
0.79375
1070
     0
1040
1.0471975511965961
1040
6.5824899347211954
1040
-21.43770575382041
1040
-0.6874076642538981
1040
0.396875
1070
     0
1040
2.0943951023931939
1040
6.5824899347211954
1040
-21.43770575382041
1040
-0.6874076642538984
1040
-0.3968749999999998
1070
     0
1040
0.0287308190699878
1071
        2
1040
20.02239473157573
1040
73.277651586557013
1040
0.0
1040
19.964907422031889
1040
67.445294938455035
1040
0.0
1002
}
  0
CIRCLE
  5
62E4
  8
0
 10
20.147063048253511
 20
70.048641925933154
 30
0.0
 40
1.5
  0
CIRCLE
  5
62E5
  8
0
 10
20.147063048253511
 20
85.048641925933154
 30
0.0
 40
1.5
  0
POLYLINE
  5
62E6
  8
0
 66
     1
 10
0.0
 20
0.0
 30
0.0
 70
     1
  0
VERTEX
  5
6AE1
  8
0
 10
18.647063048253511
 20
65.035233207056081
 30
0.0
  0
VERTEX
  5
6AE2
  8
0
 10
21.647063048253511
 20
65.035233207056081
 30
0.0
  0
VERTEX
  5
6AE3
  8
0
 10
21.647063048253511
 20
75.035233207056081
 30
0.0
  0
VERTEX
  5
6AE4
  8
0
 10
18.647063048253511
 20
75.035233207056081
 30
0.0
  0
SEQEND
  5
6AE5
  8
0
  0
POLYLINE
  5
62EC
  8
0
 66
     1
 10
0.0
 20
0.0
 30
0.0
  0
VERTEX
  5
6AE6
  8
0
 10
21.647063048253742
 20
81.909091982037438
 30
0.0
  0
VERTEX
  5
6AE7
  8
0
 10
20.7608944861074
 20
81.022923419891043
 30
0.0
  0
VERTEX
  5
6AE8
  8
0
 10
21.647063048253742
 20
80.136754857744677
 30
0.0
  0
SEQEND
  5
6AE9
  8
0
  0
POLYLINE
  5
62F1
  8
0
 66
     1
 10
0.0
 20
0.0
 30
0.0
  0
VERTEX
  5
6AEA
  8
0
 10
19.773204273272409
 20
80.035233207056095
 30
0.0
  0
VERTEX
  5
6AEB
  8
0
 10
20.638778870855429
 20
80.900807804639143
 30
0.0
  0
VERTEX
  5
6AEC
  8
0
 10
21.50435346843852
 20
80.035233207056095
 30
0.0
  0
SEQEND
  5
6AED
  8
0
  0
POLYLINE
  5
62F6
  8
0
 66
     1
 10
0.0
 20
0.0
 30
0.0
  0
VERTEX
  5
6AEE
  8
0
 10
21.647063048253742
 20
83.925660336834042
 30
0.0
  0
VERTEX
  5
6AEF
  8
0
 10
20.7608944861074
 20
83.039491774687633
 30
0.0
  0
VERTEX
  5
6AF0
  8
0
 10
21.647063048253742
 20
82.153323212541295
 30
0.0
  0
SEQEND
  5
6AF1
  8
0
  0
POLYLINE
  5
62FB
  8
0
 66
     1
 10
0.0
 20
0.0
 30
0.0
  0
VERTEX
  5
6AF2
  8
0
 10
21.379346309455791
 20
84.193377075632014
 30
0.0
  0
VERTEX
  5
6AF3
  8
0
 10
21.524947433001831
 20
84.047775952085985
 30
0.0
  0
VERTEX
  5
6AF4
  8
0
 10
20.638778870855429
 20
83.161607389939618
 30
0.0
  0
VERTEX
  5
6AF5
  8
0
 10
20.248322599842361
 20
83.552063660952655
 30
0.0
  0
SEQEND
  5
6AF6
  8
0
  0
POLYLINE
  5
6301
  8
0
 66
     1
 10
0.0
 20
0.0
 30
0.0
 70
     1
  0
VERTEX
  5
6AF7
  8
0
 10
21.524947433001831
 20
82.031207597289367
 30
0.0
  0
VERTEX
  5
6AF8
  8
0
 10
20.638778870855429
 20
82.917376159435761
 30
0.0
  0
VERTEX
  5
6AF9
  8
0
 10
19.752610308709102
 20
82.031207597289367
 30
0.0
  0
VERTEX
  5
6AFA
  8
0
 10
20.638778870855429
 20
81.145039035142986
 30
0.0
  0
SEQEND
  5
6AFB
  8
0
  0
POLYLINE
  5
6307
  8
0
 66
     1
 10
0.0
 20
0.0
 30
0.0
  0
VERTEX
  5
6AFC
  8
0
 10
21.647063048253742
 20
87.958797046427264
 30
0.0
  0
VERTEX
  5
6AFD
  8
0
 10
20.7608944861074
 20
87.072628484280855
 30
0.0
  0
VERTEX
  5
6AFE
  8
0
 10
21.647063048253742
 20
86.186459922134489
 30
0.0
  0
SEQEND
  5
6AFF
  8
0
  0
POLYLINE
  5
630C
  8
0
 66
     1
 10
0.0
 20
0.0
 30
0.0
  0
VERTEX
  5
6B00
  8
0
 10
21.373240672893399
 20
85.912637546774164
 30
0.0
  0
VERTEX
  5
6B01
  8
0
 10
21.524947433001831
 20
86.064344306882575
 30
0.0
  0
VERTEX
  5
6B02
  8
0
 10
20.638778870855429
 20
86.950512869028984
 30
0.0
  0
VERTEX
  5
6B03
  8
0
 10
20.234365216442541
 20
86.546099214616035
 30
0.0
  0
SEQEND
  5
6B04
  8
0
  0
LINE
  5
6312
  8
0
 10
18.647063048253511
 20
75.035233207056081
 30
0.0
 11
18.647063048253511
 21
65.035233207056081
 31
0.0
  0
LINE
  5
6313
  8
0
 10
17.647063048253511
 20
75.035233207056081
 30
0.0
 11
17.647063048253511
 21
65.035233207056081
 31
0.0
  0
POLYLINE
  5
6314
  8
0
 66
     1
 10
0.0
 20
0.0
 30
0.0
  0
VERTEX
  5
6B05
  8
0
 10
19.283067427412501
 20
83.822464301293266
 30
0.0
  0
VERTEX
  5
6B06
  8
0
 10
18.622210516058871
 20
83.161607389939618
 30
0.0
  0
VERTEX
  5
6B07
  8
0
 10
18.613926338660558
 20
83.169891567337885
 30
0.0
  0
SEQEND
  5
6B08
  8
0
  0
POLYLINE
  5
6319
  8
0
 66
     1
 10
0.0
 20
0.0
 30
0.0
  0
VERTEX
  5
6B09
  8
0
 10
19.291798197952399
 20
86.280925187135452
 30
0.0
  0
VERTEX
  5
6B0A
  8
0
 10
18.622210516058871
 20
86.950512869028984
 30
0.0
  0
VERTEX
  5
6B0B
  8
0
 10
18.613926338660558
 20
86.942228691630675
 30
0.0
  0
SEQEND
  5
6B0C
  8
0
  0
LINE
  5
631E
  8
0
 10
18.613926338660558
 20
80.892523627240877
 30
0.0
 11
18.613926338660558
 21
80.035233207056095
 31
0.0
  0
LINE
  5
631F
  8
0
 10
18.613926338660558
 20
82.909091982037452
 30
0.0
 11
18.613926338660558
 21
81.153323212541267
 31
0.0
  0
LINE
  5
6320
  8
0
 10
18.613926338660558
 20
84.925660336834085
 30
0.0
 11
18.613926338660558
 21
83.169891567337885
 31
0.0
  0
LINE
  5
6321
  8
0
 10
18.613926338660558
 20
86.942228691630675
 30
0.0
 11
18.613926338660558
 21
85.18645992213446
 31
0.0
  0
POLYLINE
  5
6322
  8
0
 66
     1
 10
0.0
 20
0.0
 30
0.0
 70
     1
  0
VERTEX
  5
6B0D
  8
0
 10
20.516663255603579
 20
81.022923419891043
 30
0.0
  0
VERTEX
  5
6B0E
  8
0
 10
19.630494693457191
 20
81.909091982037438
 30
0.0
  0
VERTEX
  5
6B0F
  8
0
 10
18.744326131310778
 20
81.022923419891043
 30
0.0
  0
VERTEX
  5
6B10
  8
0
 10
19.630494693457191
 20
80.136754857744677
 30
0.0
  0
SEQEND
  5
6B11
  8
0
  0
POLYLINE
  5
6328
  8
0
 66
     1
 10
0.0
 20
0.0
 30
0.0
  0
VERTEX
  5
6B12
  8
0
 10
18.613926338660558
 20
80.892523627240877
 30
0.0
  0
VERTEX
  5
6B13
  8
0
 10
18.622210516058871
 20
80.900807804639143
 30
0.0
  0
VERTEX
  5
6B14
  8
0
 10
19.487785113641891
 20
80.035233207056095
 30
0.0
  0
SEQEND
  5
6B15
  8
0
  0
POLYLINE
  5
632D
  8
0
 66
     1
 10
0.0
 20
0.0
 30
0.0
  0
VERTEX
  5
6B16
  8
0
 10
18.613926338660558
 20
84.925660336834085
 30
0.0
  0
VERTEX
  5
6B17
  8
0
 10
18.622210516058871
 20
84.933944514232337
 30
0.0
  0
VERTEX
  5
6B18
  8
0
 10
18.654258362720949
 20
84.90189666757027
 30
0.0
  0
SEQEND
  5
6B19
  8
0
  0
POLYLINE
  5
6332
  8
0
 66
     1
 10
0.0
 20
0.0
 30
0.0
  0
VERTEX
  5
6B1A
  8
0
 10
19.43387124582938
 20
83.729036889206284
 30
0.0
  0
VERTEX
  5
6B1B
  8
0
 10
18.744326131310778
 20
83.039491774687633
 30
0.0
  0
VERTEX
  5
6B1C
  8
0
 10
19.630494693457191
 20
82.153323212541295
 30
0.0
  0
VERTEX
  5
6B1D
  8
0
 10
20.516663255603579
 20
83.039491774687633
 30
0.0
  0
VERTEX
  5
6B1E
  8
0
 10
20.000317789890609
 20
83.555837240400592
 30
0.0
  0
SEQEND
  5
6B1F
  8
0
  0
POLYLINE
  5
6339
  8
0
 66
     1
 10
0.0
 20
0.0
 30
0.0
  0
VERTEX
  5
6B20
  8
0
 10
18.613926338660558
 20
81.153323212541267
 30
0.0
  0
VERTEX
  5
6B21
  8
0
 10
18.622210516058871
 20
81.145039035142986
 30
0.0
  0
VERTEX
  5
6B22
  8
0
 10
19.50837907820528
 20
82.031207597289367
 30
0.0
  0
VERTEX
  5
6B23
  8
0
 10
18.622210516058871
 20
82.917376159435761
 30
0.0
  0
VERTEX
  5
6B24
  8
0
 10
18.613926338660558
 20
82.909091982037452
 30
0.0
  0
SEQEND
  5
6B25
  8
0
  0
POLYLINE
  5
6340
  8
0
 66
     1
 10
0.0
 20
0.0
 30
0.0
  0
VERTEX
  5
6B26
  8
0
 10
19.983761016247438
 20
86.539726244924779
 30
0.0
  0
VERTEX
  5
6B27
  8
0
 10
20.516663255603579
 20
87.072628484280855
 30
0.0
  0
VERTEX
  5
6B28
  8
0
 10
19.630494693457191
 20
87.958797046427264
 30
0.0
  0
VERTEX
  5
6B29
  8
0
 10
18.744326131310778
 20
87.072628484280855
 30
0.0
  0
VERTEX
  5
6B2A
  8
0
 10
19.44353195354477
 20
86.373422662046849
 30
0.0
  0
SEQEND
  5
6B2B
  8
0
  0
POLYLINE
  5
6347
  8
0
 66
     1
 10
0.0
 20
0.0
 30
0.0
  0
VERTEX
  5
6B2C
  8
0
 10
18.613926338660558
 20
85.18645992213446
 30
0.0
  0
VERTEX
  5
6B2D
  8
0
 10
18.622210516058871
 20
85.178175744736166
 30
0.0
  0
VERTEX
  5
6B2E
  8
0
 10
18.6559787292619
 20
85.211943957939255
 30
0.0
  0
SEQEND
  5
6B2F
  8
0
  0
LINE
  5
634C
  8
0
 10
21.647063048253511
 20
75.035233207056081
 30
0.0
 11
21.647063048253742
 21
65.035233207056081
 31
0.0
  0
LINE
  5
634D
  8
0
 10
22.647063048253511
 20
75.035233207056081
 30
0.0
 11
22.647063048253511
 21
65.035233207056081
 31
0.0
  0
POLYLINE
  5
634E
  8
0
 66
     1
 10
0.0
 20
0.0
 30
0.0
  0
VERTEX
  5
6B30
  8
0
 10
21.471843784367241
 20
84.345110831224446
 30
0.0
  0
VERTEX
  5
6B31
  8
0
 10
21.647063048253742
 20
84.169891567337885
 30
0.0
  0
SEQEND
  5
6B32
  8
0
  0
LINE
  5
6352
  8
0
 10
21.647063048253742
 20
86.186459922134489
 30
0.0
 11
21.647063048253742
 21
87.958797046427264
 31
0.0
  0
LINE
  5
6353
  8
0
 10
21.647063048253742
 20
83.925660336834042
 30
0.0
 11
21.647063048253742
 21
82.153323212541295
 31
0.0
  0
LINE
  5
6354
  8
0
 10
21.647063048253742
 20
81.909091982037438
 30
0.0
 11
21.647063048253742
 21
80.136754857744677
 31
0.0
  0
POLYLINE
  5
6355
  8
0
 66
     1
 10
0.0
 20
0.0
 30
0.0
  0
VERTEX
  5
6B33
  8
0
 10
21.647063048253742
 20
85.942228691630646
 30
0.0
  0
VERTEX
  5
6B34
  8
0
 10
21.466668084980409
 20
85.761833728357317
 30
0.0
  0
SEQEND
  5
6B35
  8
0
  0
LINE
  5
6359
  8
0
 10
21.647063048253742
 20
85.942228691630646
 30
0.0
 11
21.647063048253742
 21
84.169891567337885
 31
0.0
  0
CIRCLE
  5
635A
  8
0
 10
20.147063048253511
 20
100.0486419259331
 30
0.0
 40
1.5
  0
CIRCLE
  5
635B
  8
0
 10
20.147063048253511
 20
115.048641925933
 30
0.0
 40
1.5
  0
POLYLINE
  5
635C
  8
0
 66
     1
 10
0.0
 20
0.0
 30
0.0
  0
VERTEX
  5
6B36
  8
0
 10
21.483316832891489
 20
90.055850416365416
 30
0.0
  0
VERTEX
  5
6B37
  8
0
 10
20.638778870855429
 20
89.211312454329416
 30
0.0
  0
VERTEX
  5
6B38
  8
0
 10
19.794240908819461
 20
90.055850416365416
 30
0.0
  0
SEQEND
  5
6B39
  8
0
  0
LINE
  5
6361
  8
0
 10
21.647063048253511
 20
104.7260610596732
 30
0.0
 11
19.503931059405701
 21
103.8587762780334
 31
0.0
  0
LINE
  5
6362
  8
0
 10
21.647063048253511
 20
102.99149149639339
 30
0.0
 11
20.038462749415309
 21
103.6424614628647
 31
0.0
  0
LINE
  5
6363
  8
0
 10
21.647063048253511
 20
104.293431429336
 30
0.0
 11
20.038462749415309
 21
103.6424614628647
 31
0.0
  0
LINE
  5
6364
  8
0
 10
20.728175735881329
 20
96.233013329041185
 30
0.0
 11
21.647063048253511
 21
95.861157098902567
 31
0.0
  0
LINE
  5
6365
  8
0
 10
21.647063048253511
 20
96.293786729239841
 30
0.0
 11
20.038462749415309
 21
96.944756695711149
 31
0.0
  0
LINE
  5
6366
  8
0
 10
21.647063048253511
 20
98.028356292519803
 30
0.0
 11
19.503931059405701
 21
97.161071510879822
 31
0.0
  0
LINE
  5
6367
  8
0
 10
21.647063048253511
 20
97.5957266621825
 30
0.0
 11
20.038462749415309
 21
96.944756695711149
 31
0.0
  0
LINE
  5
6368
  8
0
 10
20.728175735881329
 20
102.93071809619479
 30
0.0
 11
21.647063048253511
 21
102.55886186605611
 31
0.0
  0
LINE
  5
6369
  8
0
 10
18.647063048253511
 20
112.0852262467852
 30
0.0
 11
21.647063048253511
 21
110.87118326741719
 31
0.0
  0
LINE
  5
636A
  8
0
 10
18.647063048253511
 20
112.5178558771225
 30
0.0
 11
21.647063048253511
 21
111.3038128977545
 31
0.0
  0
LINE
  5
636B
  8
0
 10
18.647063048253511
 20
119.02877311137949
 30
0.0
 11
21.647063048253511
 21
117.8147301320115
 31
0.0
  0
LINE
  5
636C
  8
0
 10
18.647063048253511
 20
119.4614027417169
 30
0.0
 11
21.647063048253511
 21
118.24735976234869
 31
0.0
  0
LINE
  5
636D
  8
0
 10
18.647063048253511
 20
120.035233207056
 30
0.0
 11
21.647063048253511
 21
120.035233207056
 31
0.0
  0
LINE
  5
636E
  8
0
 10
18.647063048253511
 20
110.035233207056
 30
0.0
 11
21.647063048253511
 21
110.035233207056
 31
0.0
  0
LINE
  5
636F
  8
0
 10
19.503931059405701
 20
97.161071510879822
 30
0.0
 11
18.647063048253511
 21
97.507829708607943
 31
0.0
  0
LINE
  5
6370
  8
0
 10
17.647063048253511
 20
105.035233207056
 30
0.0
 11
17.647063048253511
 21
95.035233207056095
 31
0.0
  0
LINE
  5
6371
  8
0
 10
18.613926338660558
 20
89.975365401223854
 30
0.0
 11
18.613926338660558
 21
89.219596631727697
 31
0.0
  0
POLYLINE
  5
6372
  8
0
 66
     1
 10
0.0
 20
0.0
 30
0.0
  0
VERTEX
  5
6B3A
  8
0
 10
19.466748478094871
 20
90.055850416365416
 30
0.0
  0
VERTEX
  5
6B3B
  8
0
 10
18.622210516058871
 20
89.211312454329416
 30
0.0
  0
VERTEX
  5
6B3C
  8
0
 10
18.613926338660558
 20
89.219596631727697
 30
0.0
  0
SEQEND
  5
6B3D
  8
0
  0
LINE
  5
6377
  8
0
 10
18.647063048253511
 20
97.075200078270683
 30
0.0
 11
18.647063048253511
 21
95.823456210148933
 31
0.0
  0
LINE
  5
6378
  8
0
 10
18.647063048253511
 20
95.390826579811673
 30
0.0
 11
18.647063048253511
 21
95.035233207056095
 31
0.0
  0
LINE
  5
6379
  8
0
 10
18.647063048253511
 20
97.075200078270683
 30
0.0
 11
20.193644045871778
 21
96.449328144209815
 31
0.0
  0
LINE
  5
637A
  8
0
 10
18.647063048253511
 20
95.390826579811673
 30
0.0
 11
20.728175735881329
 21
96.233013329041185
 31
0.0
  0
LINE
  5
637B
  8
0
 10
18.647063048253511
 20
95.823456210148933
 30
0.0
 11
20.193644045871778
 21
96.449328144209815
 31
0.0
  0
LINE
  5
637C
  8
0
 10
18.647063048253511
 20
105.035233207056
 30
0.0
 11
18.647063048253511
 21
104.2055344757615
 31
0.0
  0
LINE
  5
637D
  8
0
 10
19.503931059405701
 20
103.8587762780334
 30
0.0
 11
18.647063048253511
 21
104.2055344757615
 31
0.0
  0
LINE
  5
637E
  8
0
 10
18.647063048253511
 20
99.210009482479308
 30
0.0
 11
18.647063048253511
 21
97.507829708607943
 31
0.0
  0
LINE
  5
637F
  8
0
 10
18.85145924795335
 20
99.292724739564406
 30
0.0
 11
18.647063048253511
 21
99.210009482479364
 31
0.0
  0
LINE
  5
6380
  8
0
 10
18.647063048253511
 20
100.9445790457593
 30
0.0
 11
18.647063048253511
 21
99.642639112816639
 31
0.0
  0
LINE
  5
6381
  8
0
 10
18.647063048253511
 20
100.9445790457593
 30
0.0
 11
18.879411589354671
 21
100.85055200739581
 31
0.0
  0
LINE
  5
6382
  8
0
 10
18.647063048253511
 20
101.3772086760965
 30
0.0
 11
19.153393826249768
 21
101.1723062340084
 31
0.0
  0
LINE
  5
6383
  8
0
 10
18.647063048253511
 20
102.0885313469652
 30
0.0
 11
18.647063048253511
 21
101.3772086760964
 31
0.0
  0
LINE
  5
6384
  8
0
 10
18.647063048253511
 20
102.0885313469652
 30
0.0
 11
20.728175735881329
 21
102.93071809619479
 31
0.0
  0
LINE
  5
6385
  8
0
 10
18.647063048253511
 20
102.5211609773025
 30
0.0
 11
20.193644045871778
 21
103.1470329113634
 31
0.0
  0
LINE
  5
6386
  8
0
 10
18.647063048253511
 20
103.77290484542431
 30
0.0
 11
20.193644045871778
 21
103.1470329113634
 31
0.0
  0
LINE
  5
6387
  8
0
 10
18.647063048253511
 20
99.642639112816639
 30
0.0
 11
18.697473272960782
 21
99.663039172614731
 31
0.0
  0
LINE
  5
6388
  8
0
 10
18.647063048253511
 20
103.77290484542431
 30
0.0
 11
18.647063048253511
 21
102.5211609773025
 31
0.0
  0
LINE
  5
6389
  8
0
 10
17.647063048253511
 20
120.035233207056
 30
0.0
 11
17.647063048253511
 21
110.035233207056
 31
0.0
  0
LINE
  5
638A
  8
0
 10
18.647063048253511
 20
112.0852262467852
 30
0.0
 11
18.647063048253511
 21
110.035233207056
 31
0.0
  0
LINE
  5
638B
  8
0
 10
18.647063048253511
 20
114.46587774843471
 30
0.0
 11
18.647063048253511
 21
112.5178558771225
 31
0.0
  0
LINE
  5
638C
  8
0
 10
18.647063048253511
 20
114.46587774843459
 30
0.0
 11
18.748324856851461
 21
114.50685647770339
 31
0.0
  0
LINE
  5
638D
  8
0
 10
18.647063048253511
 20
119.02877311137949
 30
0.0
 11
18.647063048253511
 21
114.8985073787719
 31
0.0
  0
LINE
  5
638E
  8
0
 10
18.647063048253511
 20
114.8985073787719
 30
0.0
 11
18.6543035728116
 21
114.90143748144069
 31
0.0
  0
LINE
  5
638F
  8
0
 10
18.647063048253511
 20
120.035233207056
 30
0.0
 11
18.647063048253511
 21
119.4614027417168
 31
0.0
  0
LINE
  5
6390
  8
0
 10
21.647063048253511
 20
97.5957266621825
 30
0.0
 11
21.647063048253511
 21
96.293786729239841
 31
0.0
  0
LINE
  5
6391
  8
0
 10
22.647063048253511
 20
105.035233207056
 30
0.0
 11
22.647063048253511
 21
95.035233207056095
 31
0.0
  0
LINE
  5
6392
  8
0
 10
21.647063048253511
 20
95.861157098902567
 30
0.0
 11
21.647063048253511
 21
95.035233207056095
 31
0.0
  0
LINE
  5
6393
  8
0
 10
21.647063048253511
 20
105.035233207056
 30
0.0
 11
21.647063048253511
 21
104.7260610596732
 31
0.0
  0
LINE
  5
6394
  8
0
 10
21.647063048253511
 20
104.293431429336
 30
0.0
 11
21.647063048253511
 21
102.99149149639339
 31
0.0
  0
LINE
  5
6395
  8
0
 10
21.647063048253511
 20
100.4240524618474
 30
0.0
 11
21.647063048253511
 21
99.172308593725759
 31
0.0
  0
LINE
  5
6396
  8
0
 10
21.647063048253511
 20
100.4240524618474
 30
0.0
 11
21.603744752382209
 21
100.40652237085391
 31
0.0
  0
LINE
  5
6397
  8
0
 10
21.647063048253511
 20
98.739678963388485
 30
0.0
 11
21.15579953938208
 21
98.938483968043514
 31
0.0
  0
LINE
  5
6398
  8
0
 10
21.647063048253511
 20
99.172308593725759
 30
0.0
 11
21.42448124382895
 21
99.26238321939131
 31
0.0
  0
LINE
  5
6399
  8
0
 10
21.647063048253511
 20
98.739678963388485
 30
0.0
 11
21.647063048253511
 21
98.028356292519803
 31
0.0
  0
LINE
  5
639A
  8
0
 10
21.456850855958521
 20
100.7797068333027
 30
0.0
 11
21.647063048253511
 21
100.8566820921847
 31
0.0
  0
LINE
  5
639B
  8
0
 10
21.647063048253511
 20
102.55886186605611
 30
0.0
 11
21.647063048253511
 21
100.8566820921847
 31
0.0
  0
LINE
  5
639C
  8
0
 10
21.647063048253511
 20
115.6799207278026
 30
0.0
 11
21.647063048253511
 21
111.3038128977543
 31
0.0
  0
LINE
  5
639D
  8
0
 10
22.647063048253511
 20
120.035233207056
 30
0.0
 11
22.647063048253511
 21
110.035233207056
 31
0.0
  0
LINE
  5
639E
  8
0
 10
21.647063048253511
 20
110.87118326741719
 30
0.0
 11
21.647063048253511
 21
110.035233207056
 31
0.0
  0
LINE
  5
639F
  8
0
 10
21.528931066048582
 20
115.63211495992439
 30
0.0
 11
21.647063048253511
 21
115.6799207278026
 31
0.0
  0
LINE
  5
63A0
  8
0
 10
21.322072478672268
 20
115.98103285168639
 30
0.0
 11
21.647063048253511
 21
116.11255035814
 31
0.0
  0
LINE
  5
63A1
  8
0
 10
21.647063048253511
 20
117.8147301320115
 30
0.0
 11
21.647063048253511
 21
116.11255035814
 31
0.0
  0
LINE
  5
63A2
  8
0
 10
21.647063048253511
 20
120.035233207056
 30
0.0
 11
21.647063048253511
 21
118.24735976234869
 31
0.0
  0
TEXT
  5
63A3
  8
0
 10
16.92647997792238
 20
147.18432420647571
 30
0.0
 40
4.0
  1
＜凡　例＞
 11
16.92647997792238
 21
149.18432420647571
 31
0.0
 73
     2
  0
TEXT
  5
63A4
  8
0
 10
16.92647997792238
 20
140.51334373798679
 30
0.0
 40
3.0
  1
コア形状
 11
16.92647997792238
 21
142.0133437379869
 31
0.0
 73
     2
  0
CIRCLE
  5
63A5
  8
0
 10
20.147063048253511
 20
130.04864192593311
 30
0.0
 40
1.5
  0
LINE
  5
63A6
  8
0
 10
18.647063048253511
 20
127.149700083186
 30
0.0
 11
21.647063048253511
 21
128.36374306255411
 31
0.0
  0
LINE
  5
63A7
  8
0
 10
18.647063048253511
 20
127.58232971352309
 30
0.0
 11
21.647063048253511
 21
128.79637269289131
 31
0.0
  0
LINE
  5
63A8
  8
0
 10
18.647063048253511
 20
125.035233207056
 30
0.0
 11
21.647063048253511
 21
125.035233207056
 31
0.0
  0
LINE
  5
63A9
  8
0
 10
18.647063048253511
 20
135.03523320705591
 30
0.0
 11
21.647063048253511
 21
135.03523320705591
 31
0.0
  0
LINE
  5
63AA
  8
0
 10
17.647063048253511
 20
135.03523320705591
 30
0.0
 11
17.647063048253511
 21
125.035233207056
 31
0.0
  0
LINE
  5
63AB
  8
0
 10
18.647063048253511
 20
135.03523320705591
 30
0.0
 11
18.647063048253511
 21
127.58232971352309
 31
0.0
  0
LINE
  5
63AC
  8
0
 10
18.647063048253511
 20
127.149700083186
 30
0.0
 11
18.647063048253511
 21
125.035233207056
 31
0.0
  0
LINE
  5
63AD
  8
0
 10
22.647063048253511
 20
135.03523320705591
 30
0.0
 11
22.647063048253511
 21
125.035233207056
 31
0.0
  0
LINE
  5
63AE
  8
0
 10
21.647063048253511
 20
135.03523320705591
 30
0.0
 11
21.647063048253511
 21
128.79637269289131
 31
0.0
  0
LINE
  5
63AF
  8
0
 10
21.647063048253511
 20
128.36374306255411
 30
0.0
 11
21.647063048253511
 21
125.035233207056
 31
0.0
  0
LINE
  5
63B0
  8
0
 10
73.775838725322089
 20
86.532612903348905
 30
0.0
 11
78.775838725322089
 21
89.545708852673741
 31
0.0
  0
LINE
  5
63B1
  8
0
 10
73.775838725322089
 20
87.700153004584621
 30
0.0
 11
77.623220882455428
 21
89.947298185883255
 31
0.0
  0
LINE
  5
63B2
  8
0
 10
78.775838725322089
 20
87.700153004584621
 30
0.0
 11
74.928456568188764
 21
89.947298185883255
 31
0.0
  0
LINE
  5
63B3
  8
0
 10
78.775838725322089
 20
86.532612903348905
 30
0.0
 11
73.775838725322089
 21
89.545708852673741
 31
0.0
  0
LINE
  5
63B4
  8
0
 10
78.775838725322089
 20
90.035233207056095
 30
0.0
 11
78.775838725322089
 21
80.035233207056095
 31
0.0
  0
LINE
  5
63B5
  8
0
 10
73.775838725322089
 20
90.035233207056095
 30
0.0
 11
73.775838725322089
 21
80.035233207056095
 31
0.0
  0
LINE
  5
63B6
  8
0
 10
78.275838725322075
 20
75.035233207056081
 30
0.0
 11
78.275838725322075
 21
65.035233207056081
 31
0.0
  0
LINE
  5
63B7
  8
0
 10
74.275838725322089
 20
75.035233207056081
 30
0.0
 11
74.275838725322089
 21
65.035233207056081
 31
0.0
  0
LINE
  5
63B8
  8
0
 10
77.775838725322089
 20
75.035233207056081
 30
0.0
 11
77.775838725322089
 21
70.699883000174921
 31
0.0
  0
LINE
  5
63B9
  8
0
 10
74.775838725322089
 20
75.035233207056081
 30
0.0
 11
74.775838725322089
 21
70.699883000174907
 31
0.0
  0
LINE
  5
63BA
  8
0
 10
78.775838725322089
 20
75.035233207056081
 30
0.0
 11
78.775838725322089
 21
65.035233207056081
 31
0.0
  0
LINE
  5
63BB
  8
0
 10
73.775838725322089
 20
75.035233207056081
 30
0.0
 11
73.775838725322089
 21
65.035233207056081
 31
0.0
  0
CIRCLE
  5
63BC
  8
0
 10
76.275838725322089
 20
69.518133441545544
 30
0.0
 40
1.8926483991381231
  0
LINE
  5
63BD
  8
0
 10
73.775838725322089
 20
66.535233207056081
 30
0.0
 11
78.775838725322089
 21
66.535233207056081
 31
0.0
  0
LINE
  5
63BE
  8
0
 10
73.775838725322089
 20
66.035233207056081
 30
0.0
 11
78.775838725322089
 21
66.035233207056081
 31
0.0
  0
LINE
  5
63BF
  8
0
 10
73.775838725322089
 20
65.535233207056081
 30
0.0
 11
78.775838725322089
 21
65.535233207056081
 31
0.0
  0
LINE
  5
63C0
  8
0
 10
73.775838725322089
 20
65.035233207056081
 30
0.0
 11
78.775838725322089
 21
65.035233207056081
 31
0.0
  0
LINE
  5
63C1
  8
0
 10
73.775838725322089
 20
67.535233207056081
 30
0.0
 11
78.775838725322089
 21
67.535233207056081
 31
0.0
  0
LINE
  5
63C2
  8
0
 10
73.775838725322089
 20
67.035233207056081
 30
0.0
 11
78.775838725322089
 21
67.035233207056081
 31
0.0
  0
TEXT
  5
63C3
  8
0
 10
75.342505391988752
 20
68.518133441545544
 30
0.0
 40
2.0
  1
ε
 72
     1
 11
76.275838725322089
 21
69.518133441545544
 31
0.0
 73
     2
  0
LINE
  5
63C4
  8
0
 10
75.775838725322075
 20
67.720299867607594
 30
0.0
 11
75.775838725322075
 21
65.035233207056081
 31
0.0
  0
LINE
  5
63C5
  8
0
 10
75.275838725322089
 20
67.938811854493679
 30
0.0
 11
75.275838725322089
 21
65.035233207056081
 31
0.0
  0
LINE
  5
63C6
  8
0
 10
74.775838725322089
 20
68.391534705172546
 30
0.0
 11
74.775838725322089
 21
65.035233207056081
 31
0.0
  0
LINE
  5
63C7
  8
0
 10
73.775838725322089
 20
71.035233207056081
 30
0.0
 11
75.108176462310269
 21
71.035233207056081
 31
0.0
  0
LINE
  5
63C8
  8
0
 10
73.775838725322089
 20
68.535233207056081
 30
0.0
 11
74.675508468039652
 21
68.535233207056081
 31
0.0
  0
LINE
  5
63C9
  8
0
 10
73.775838725322089
 20
69.035233207056081
 30
0.0
 11
74.453331502293494
 21
69.035233207056081
 31
0.0
  0
LINE
  5
63CA
  8
0
 10
73.775838725322089
 20
69.535233207056081
 30
0.0
 11
74.383219317303414
 21
69.535233207056081
 31
0.0
  0
LINE
  5
63CB
  8
0
 10
73.775838725322089
 20
70.035233207056081
 30
0.0
 11
74.447592606981729
 21
70.035233207056081
 31
0.0
  0
LINE
  5
63CC
  8
0
 10
73.775838725322089
 20
70.535233207056081
 30
0.0
 11
74.662469730068906
 21
70.535233207056081
 31
0.0
  0
LINE
  5
63CD
  8
0
 10
73.775838725322089
 20
68.035233207056081
 30
0.0
 11
75.135408417606612
 21
68.035233207056081
 31
0.0
  0
LINE
  5
63CE
  8
0
 10
76.775838725322089
 20
67.720299867607594
 30
0.0
 11
76.775838725322089
 21
65.035233207056081
 31
0.0
  0
LINE
  5
63CF
  8
0
 10
77.275838725322089
 20
67.93881185449365
 30
0.0
 11
77.275838725322089
 21
65.035233207056081
 31
0.0
  0
LINE
  5
63D0
  8
0
 10
76.275838725322089
 20
67.653060453535602
 30
0.0
 11
76.275838725322089
 21
65.035233207056081
 31
0.0
  0
LINE
  5
63D1
  8
0
 10
77.775838725322089
 20
68.391534705172532
 30
0.0
 11
77.775838725322089
 21
65.035233207056081
 31
0.0
  0
LINE
  5
63D2
  8
0
 10
77.443500988333923
 20
71.035233207056081
 30
0.0
 11
78.775838725322089
 21
71.035233207056081
 31
0.0
  0
LINE
  5
63D3
  8
0
 10
77.876168982604554
 20
68.535233207056081
 30
0.0
 11
78.775838725322089
 21
68.535233207056081
 31
0.0
  0
LINE
  5
63D4
  8
0
 10
78.098345948350683
 20
69.035233207056081
 30
0.0
 11
78.775838725322089
 21
69.035233207056081
 31
0.0
  0
LINE
  5
63D5
  8
0
 10
78.168458133340764
 20
69.535233207056081
 30
0.0
 11
78.775838725322089
 21
69.535233207056081
 31
0.0
  0
LINE
  5
63D6
  8
0
 10
78.104084843662449
 20
70.035233207056081
 30
0.0
 11
78.775838725322089
 21
70.035233207056081
 31
0.0
  0
LINE
  5
63D7
  8
0
 10
77.889207720575314
 20
70.535233207056081
 30
0.0
 11
78.775838725322089
 21
70.535233207056081
 31
0.0
  0
LINE
  5
63D8
  8
0
 10
77.41626903303758
 20
68.035233207056081
 30
0.0
 11
78.775838725322089
 21
68.035233207056081
 31
0.0
  0
LINE
  5
63D9
  8
0
 10
73.775838725322089
 20
75.035233207056081
 30
0.0
 11
78.775838725322089
 21
75.035233207056081
 31
0.0
  0
LINE
  5
63DA
  8
0
 10
73.775838725322089
 20
74.535233207056081
 30
0.0
 11
78.775838725322089
 21
74.535233207056081
 31
0.0
  0
LINE
  5
63DB
  8
0
 10
73.775838725322089
 20
74.035233207056081
 30
0.0
 11
78.775838725322089
 21
74.035233207056081
 31
0.0
  0
LINE
  5
63DC
  8
0
 10
73.775838725322089
 20
73.535233207056081
 30
0.0
 11
78.775838725322089
 21
73.535233207056081
 31
0.0
  0
LINE
  5
63DD
  8
0
 10
73.775838725322089
 20
73.035233207056081
 30
0.0
 11
78.775838725322089
 21
73.035233207056081
 31
0.0
  0
LINE
  5
63DE
  8
0
 10
73.775838725322089
 20
72.535233207056081
 30
0.0
 11
78.775838725322089
 21
72.535233207056081
 31
0.0
  0
LINE
  5
63DF
  8
0
 10
73.775838725322089
 20
72.035233207056081
 30
0.0
 11
78.775838725322089
 21
72.035233207056081
 31
0.0
  0
LINE
  5
63E0
  8
0
 10
73.775838725322089
 20
71.535233207056081
 30
0.0
 11
78.775838725322089
 21
71.535233207056081
 31
0.0
  0
LINE
  5
63E1
  8
0
 10
75.775838725322075
 20
75.035233207056081
 30
0.0
 11
75.775838725322075
 21
71.371117837739845
 31
0.0
  0
LINE
  5
63E2
  8
0
 10
75.275838725322089
 20
75.035233207056081
 30
0.0
 11
75.275838725322089
 21
71.152605850853774
 31
0.0
  0
LINE
  5
63E3
  8
0
 10
76.775838725322089
 20
75.035233207056081
 30
0.0
 11
76.775838725322089
 21
71.371117837739845
 31
0.0
  0
LINE
  5
63E4
  8
0
 10
77.275838725322089
 20
75.035233207056081
 30
0.0
 11
77.275838725322089
 21
71.152605850853803
 31
0.0
  0
LINE
  5
63E5
  8
0
 10
76.275838725322089
 20
75.035233207056081
 30
0.0
 11
76.275838725322089
 21
71.438357251811851
 31
0.0
  0
LINE
  5
63E6
  8
0
 10
73.775838725322089
 20
80.694912397170356
 30
0.0
 11
78.775838725322089
 21
83.708008346495205
 31
0.0
  0
LINE
  5
63E7
  8
0
 10
78.775838725322089
 20
80.694912397170356
 30
0.0
 11
73.775838725322089
 21
83.708008346495205
 31
0.0
  0
LINE
  5
63E8
  8
0
 10
76.029785636077406
 20
80.043166101965525
 30
0.0
 11
73.775838725322089
 21
81.378240271605875
 31
0.0
  0
LINE
  5
63E9
  8
0
 10
74.493330574460231
 20
79.95974665279698
 30
0.0
 11
78.775838725322089
 21
82.540468245259433
 31
0.0
  0
LINE
  5
63EA
  8
0
 10
78.058346876183933
 20
79.95974665279698
 30
0.0
 11
73.775838725322089
 21
82.540468245259433
 31
0.0
  0
LINE
  5
63EB
  8
0
 10
73.775838725322089
 20
85.365072802113218
 30
0.0
 11
78.775838725322089
 21
88.378168751438039
 31
0.0
  0
LINE
  5
63EC
  8
0
 10
78.775838725322089
 20
85.365072802113218
 30
0.0
 11
73.775838725322089
 21
88.378168751438039
 31
0.0
  0
TEXT
  5
63ED
  8
0
 10
75.342505391988752
 20
83.566127748659767
 30
0.0
 40
2.0
  1
δ
 72
     1
 11
76.275838725322089
 21
84.566127748659767
 31
0.0
 73
     2
  0
CIRCLE
  5
63EE
  8
0
 10
76.275838725322089
 20
84.566127748659767
 30
0.0
 40
1.8926483991381231
  0
LINE
  5
63EF
  8
0
 10
73.775838725322089
 20
81.862452498406086
 30
0.0
 11
75.423934696608484
 21
82.855626757442366
 31
0.0
  0
LINE
  5
63F0
  8
0
 10
73.775838725322089
 20
83.029992599641758
 30
0.0
 11
74.65884933723305
 21
83.562111739233686
 31
0.0
  0
LINE
  5
63F1
  8
0
 10
73.775838725322089
 20
84.197532700877446
 30
0.0
 11
74.383274751463816
 21
84.563585306845766
 31
0.0
  0
LINE
  5
63F2
  8
0
 10
74.650743140647961
 20
85.515854358993622
 30
0.0
 11
73.775838725322089
 21
86.043088548966566
 31
0.0
  0
LINE
  5
63F3
  8
0
 10
74.383539863038408
 20
84.509336080440235
 30
0.0
 11
73.775838725322089
 21
84.875548447730878
 31
0.0
  0
LINE
  5
63F4
  8
0
 10
75.407457191863656
 20
86.227384051726304
 30
0.0
 11
73.775838725322089
 21
87.210628650202295
 31
0.0
  0
LINE
  5
63F5
  8
0
 10
76.5218918145668
 20
80.043166101965525
 30
0.0
 11
78.775838725322089
 21
81.378240271605875
 31
0.0
  0
LINE
  5
63F6
  8
0
 10
78.775838725322089
 20
81.862452498406086
 30
0.0
 11
77.127742754035708
 21
82.855626757442366
 31
0.0
  0
LINE
  5
63F7
  8
0
 10
78.168137587605798
 20
84.509336080440235
 30
0.0
 11
78.775838725322089
 21
84.875548447730878
 31
0.0
  0
LINE
  5
63F8
  8
0
 10
77.900934309996231
 20
85.515854358993622
 30
0.0
 11
78.775838725322089
 21
86.043088548966566
 31
0.0
  0
LINE
  5
63F9
  8
0
 10
78.775838725322089
 20
84.197532700877446
 30
0.0
 11
78.168402699180405
 21
84.563585306845766
 31
0.0
  0
LINE
  5
63FA
  8
0
 10
78.775838725322089
 20
83.029992599641758
 30
0.0
 11
77.892828113411156
 21
83.562111739233686
 31
0.0
  0
LINE
  5
63FB
  8
0
 10
77.144220258780521
 20
86.227384051726304
 30
0.0
 11
78.775838725322089
 21
87.210628650202295
 31
0.0
  0
LINE
  5
63FC
  8
0
 10
74.493330574460231
 20
94.959746652796994
 30
0.0
 11
78.775838725322089
 21
97.540468245259433
 31
0.0
  0
LINE
  5
63FD
  8
0
 10
73.775838725322089
 20
95.694912397170356
 30
0.0
 11
78.775838725322089
 21
98.708008346495205
 31
0.0
  0
LINE
  5
63FE
  8
0
 10
73.775838725322089
 20
96.862452498406086
 30
0.0
 11
75.423934696608484
 21
97.855626757442366
 31
0.0
  0
LINE
  5
63FF
  8
0
 10
73.775838725322089
 20
105.035233207056
 30
0.0
 11
73.775838725322089
 21
95.035233207056095
 31
0.0
  0
LINE
  5
6400
  8
0
 10
78.775838725322089
 20
105.035233207056
 30
0.0
 11
78.775838725322089
 21
95.035233207056095
 31
0.0
  0
LINE
  5
6401
  8
0
 10
73.775838725322089
 20
88.867693105820351
 30
0.0
 11
75.764729293204084
 21
90.050466299467061
 31
0.0
  0
LINE
  5
6402
  8
0
 10
78.775838725322089
 20
88.867693105820351
 30
0.0
 11
76.786948157440122
 21
90.050466299467061
 31
0.0
  0
LINE
  5
6403
  8
0
 10
76.5218918145668
 20
95.043166101965525
 30
0.0
 11
78.775838725322089
 21
96.378240271605918
 31
0.0
  0
LINE
  5
6404
  8
0
 10
73.775838725322089
 20
101.53261290334891
 30
0.0
 11
78.775838725322089
 21
104.5457088526736
 31
0.0
  0
LINE
  5
6405
  8
0
 10
73.775838725322089
 20
102.70015300458449
 30
0.0
 11
77.623220882455428
 21
104.9472981858831
 31
0.0
  0
LINE
  5
6406
  8
0
 10
73.775838725322089
 20
100.3650728021131
 30
0.0
 11
78.775838725322089
 21
103.378168751438
 31
0.0
  0
CIRCLE
  5
6407
  8
0
 10
76.275838725322089
 20
99.523997402125545
 30
0.0
 40
1.8926483991381231
  0
TEXT
  5
6408
  8
0
 10
75.409172058655429
 20
98.523997402125545
 30
0.0
 40
2.0
  1
γ
 72
     1
 11
76.275838725322089
 21
99.523997402125545
 31
0.0
 73
     2
  0
LINE
  5
6409
  8
0
 10
73.775838725322089
 20
98.029992599641758
 30
0.0
 11
74.65884933723305
 21
98.562111739233728
 31
0.0
  0
LINE
  5
640A
  8
0
 10
73.775838725322089
 20
99.197532700877474
 30
0.0
 11
74.383274751463816
 21
99.563585306845766
 31
0.0
  0
LINE
  5
640B
  8
0
 10
73.775838725322089
 20
103.86769310582019
 30
0.0
 11
75.764729293204084
 21
105.0504662994669
 31
0.0
  0
LINE
  5
640C
  8
0
 10
77.900934309996231
 20
100.51585435899349
 30
0.0
 11
78.775838725322089
 21
101.0430885489664
 31
0.0
  0
LINE
  5
640D
  8
0
 10
78.168137587605798
 20
99.509336080440235
 30
0.0
 11
78.775838725322089
 21
99.875548447730864
 31
0.0
  0
LINE
  5
640E
  8
0
 10
77.144220258780521
 20
101.2273840517261
 30
0.0
 11
78.775838725322089
 21
102.2106286502022
 31
0.0
  0
CIRCLE
  5
640F
  8
0
 10
76.275838725322089
 20
115.048641925933
 30
0.0
 40
1.8926483991381231
  0
TEXT
  5
6410
  8
0
 10
75.409172058655429
 20
114.048641925933
 30
0.0
 40
2.0
  1
β
 72
     1
 11
76.275838725322089
 21
115.048641925933
 31
0.0
 73
     2
  0
LINE
  5
6411
  8
0
 10
73.775838725322089
 20
120.035233207056
 30
0.0
 11
73.775838725322089
 21
110.035233207056
 31
0.0
  0
LINE
  5
6412
  8
0
 10
78.775838725322089
 20
120.035233207056
 30
0.0
 11
78.775838725322089
 21
110.035233207056
 31
0.0
  0
TEXT
  5
6413
  8
0
 10
81.775838725322075
 20
68.785233207056095
 30
0.0
 40
2.5
  1
強風化
 11
81.775838725322075
 21
70.035233207056095
 31
0.0
 73
     2
  0
TEXT
  5
6414
  8
0
 10
81.775838725322075
 20
83.785233207056095
 30
0.0
 40
2.5
  1
風化
 11
81.775838725322075
 21
85.035233207056095
 31
0.0
 73
     2
  0
TEXT
  5
6415
  8
0
 10
81.775838725322075
 20
98.785233207056024
 30
0.0
 40
2.5
  1
弱風化
 11
81.775838725322075
 21
100.035233207056
 31
0.0
 73
     2
  0
TEXT
  5
6416
  8
0
 10
81.775838725322075
 20
113.785233207056
 30
0.0
 40
2.5
  1
新鮮
 11
81.775838725322075
 21
115.035233207056
 31
0.0
 73
     2
  0
TEXT
  5
6417
  8
0
 10
73.251508781619066
 20
139.4439979658448
 30
0.0
 40
3.0
  1
風化
 11
73.251508781619066
 21
140.9439979658448
 31
0.0
 73
     2
  0
LINE
  5
6418
  8
0
 10
73.775838725322089
 20
135.03523320705591
 30
0.0
 11
73.775838725322089
 21
125.035233207056
 31
0.0
  0
LINE
  5
6419
  8
0
 10
78.775838725322089
 20
135.03523320705591
 30
0.0
 11
78.775838725322089
 21
125.035233207056
 31
0.0
  0
TEXT
  5
641A
  8
0
 10
75.275838725322089
 20
129.04864192593311
 30
0.0
 40
2.0
  1
α
 72
     1
 11
76.275838725322089
 21
130.04864192593311
 31
0.0
 73
     2
  0
CIRCLE
  5
641B
  8
0
 10
76.275838725322089
 20
130.04864192593311
 30
0.0
 40
1.8926483991381231
  0
TEXT
  5
641C
  8
0
 10
81.775838725322075
 20
128.78523320705591
 30
0.0
 40
2.5
  1
非常に新鮮
 11
81.775838725322075
 21
130.03523320705591
 31
0.0
 73
     2
  0
TEXT
  5
641D
  8
0
 10
115.9178740851128
 20
83.785233207056095
 30
0.0
 40
2.5
  1
強変質
 11
115.9178740851128
 21
85.035233207056095
 31
0.0
 73
     2
  0
TEXT
  5
641E
  8
0
 10
115.9178740851128
 20
113.785233207056
 30
0.0
 40
2.5
  1
弱変質
 11
115.9178740851128
 21
115.035233207056
 31
0.0
 73
     2
  0
TEXT
  5
641F
  8
0
 10
115.9178740851128
 20
98.785233207056024
 30
0.0
 40
2.5
  1
中変質
 11
115.9178740851128
 21
100.035233207056
 31
0.0
 73
     2
  0
LINE
  5
6420
  8
0
 10
112.4178740851128
 20
90.035233207056095
 30
0.0
 11
112.4178740851128
 21
80.035233207056095
 31
0.0
  0
LINE
  5
6421
  8
0
 10
111.9178740851128
 20
90.035233207056095
 30
0.0
 11
111.9178740851128
 21
85.699883000174907
 31
0.0
  0
LINE
  5
6422
  8
0
 10
111.4178740851128
 20
90.035233207056095
 30
0.0
 11
111.4178740851128
 21
86.152605850853803
 31
0.0
  0
LINE
  5
6423
  8
0
 10
110.9178740851127
 20
90.035233207056095
 30
0.0
 11
110.9178740851127
 21
86.371117837739845
 31
0.0
  0
LINE
  5
6424
  8
0
 10
110.4178740851128
 20
90.035233207056095
 30
0.0
 11
110.4178740851128
 21
86.438357251811865
 31
0.0
  0
LINE
  5
6425
  8
0
 10
109.9178740851127
 20
90.035233207056095
 30
0.0
 11
109.9178740851127
 21
86.371117837739845
 31
0.0
  0
LINE
  5
6426
  8
0
 10
109.4178740851128
 20
90.035233207056095
 30
0.0
 11
109.4178740851128
 21
86.152605850853774
 31
0.0
  0
LINE
  5
6427
  8
0
 10
108.9178740851127
 20
90.035233207056095
 30
0.0
 11
108.9178740851127
 21
85.699883000174907
 31
0.0
  0
LINE
  5
6428
  8
0
 10
108.4178740851128
 20
90.035233207056095
 30
0.0
 11
108.4178740851128
 21
80.035233207056095
 31
0.0
  0
LINE
  5
6429
  8
0
 10
107.9178740851127
 20
90.035233207056095
 30
0.0
 11
107.9178740851127
 21
80.035233207056095
 31
0.0
  0
LINE
  5
642A
  8
0
 10
112.9178740851128
 20
90.035233207056095
 30
0.0
 11
112.9178740851128
 21
80.035233207056095
 31
0.0
  0
LINE
  5
642B
  8
0
 10
107.9178740851127
 20
80.035233207056095
 30
0.0
 11
112.9178740851128
 21
80.035233207056095
 31
0.0
  0
LINE
  5
642C
  8
0
 10
107.9178740851127
 20
80.535233207056081
 30
0.0
 11
112.9178740851128
 21
80.535233207056081
 31
0.0
  0
LINE
  5
642D
  8
0
 10
107.9178740851127
 20
81.035233207056081
 30
0.0
 11
112.9178740851128
 21
81.035233207056081
 31
0.0
  0
LINE
  5
642E
  8
0
 10
107.9178740851127
 20
81.535233207056066
 30
0.0
 11
112.9178740851128
 21
81.535233207056066
 31
0.0
  0
LINE
  5
642F
  8
0
 10
107.9178740851127
 20
82.035233207056081
 30
0.0
 11
112.9178740851128
 21
82.035233207056081
 31
0.0
  0
LINE
  5
6430
  8
0
 10
107.9178740851127
 20
82.535233207056095
 30
0.0
 11
112.9178740851128
 21
82.535233207056095
 31
0.0
  0
LINE
  5
6431
  8
0
 10
107.9178740851127
 20
86.535233207056066
 30
0.0
 11
112.9178740851128
 21
86.535233207056066
 31
0.0
  0
LINE
  5
6432
  8
0
 10
107.9178740851127
 20
87.035233207056081
 30
0.0
 11
112.9178740851128
 21
87.035233207056081
 31
0.0
  0
LINE
  5
6433
  8
0
 10
107.9178740851127
 20
87.535233207056095
 30
0.0
 11
112.9178740851128
 21
87.535233207056095
 31
0.0
  0
LINE
  5
6434
  8
0
 10
107.9178740851127
 20
88.035233207056081
 30
0.0
 11
112.9178740851128
 21
88.035233207056081
 31
0.0
  0
CIRCLE
  5
6435
  8
0
 10
110.4178740851128
 20
84.545708852673727
 30
0.0
 40
1.8926483991381231
  0
TEXT
  5
6436
  8
0
 10
109.7512074184461
 20
83.545708852673727
 30
0.0
 40
2.0
  1
4
 72
     1
 11
110.4178740851128
 21
84.545708852673727
 31
0.0
 73
     2
  0
LINE
  5
6437
  8
0
 10
108.9178740851127
 20
83.391534705172546
 30
0.0
 11
108.9178740851127
 21
80.035233207056095
 31
0.0
  0
LINE
  5
6438
  8
0
 10
109.4178740851128
 20
82.93881185449365
 30
0.0
 11
109.4178740851128
 21
80.035233207056095
 31
0.0
  0
LINE
  5
6439
  8
0
 10
109.9178740851127
 20
82.720299867607608
 30
0.0
 11
109.9178740851127
 21
80.035233207056095
 31
0.0
  0
LINE
  5
643A
  8
0
 10
110.4178740851128
 20
82.653060453535574
 30
0.0
 11
110.4178740851128
 21
80.035233207056095
 31
0.0
  0
LINE
  5
643B
  8
0
 10
107.9178740851127
 20
83.035233207056081
 30
0.0
 11
109.2774437773972
 21
83.035233207056081
 31
0.0
  0
LINE
  5
643C
  8
0
 10
107.9178740851127
 20
83.535233207056081
 30
0.0
 11
108.81754382783031
 21
83.535233207056081
 31
0.0
  0
LINE
  5
643D
  8
0
 10
107.9178740851127
 20
84.035233207056066
 30
0.0
 11
108.59536686208411
 21
84.035233207056066
 31
0.0
  0
LINE
  5
643E
  8
0
 10
107.9178740851127
 20
84.535233207056081
 30
0.0
 11
108.5252546770941
 21
84.535233207056081
 31
0.0
  0
LINE
  5
643F
  8
0
 10
107.9178740851127
 20
85.035233207056095
 30
0.0
 11
108.5896279667724
 21
85.035233207056095
 31
0.0
  0
LINE
  5
6440
  8
0
 10
107.9178740851127
 20
85.535233207056081
 30
0.0
 11
108.8045050898596
 21
85.535233207056081
 31
0.0
  0
LINE
  5
6441
  8
0
 10
107.9178740851127
 20
86.035233207056081
 30
0.0
 11
109.25021182210079
 21
86.035233207056081
 31
0.0
  0
LINE
  5
6442
  8
0
 10
111.5583043928283
 20
83.035233207056081
 30
0.0
 11
112.9178740851128
 21
83.035233207056081
 31
0.0
  0
LINE
  5
6443
  8
0
 10
111.58553634812461
 20
86.035233207056081
 30
0.0
 11
112.9178740851128
 21
86.035233207056081
 31
0.0
  0
LINE
  5
6444
  8
0
 10
112.031243080366
 20
85.535233207056081
 30
0.0
 11
112.9178740851128
 21
85.535233207056081
 31
0.0
  0
LINE
  5
6445
  8
0
 10
112.2461202034531
 20
85.035233207056095
 30
0.0
 11
112.9178740851128
 21
85.035233207056095
 31
0.0
  0
LINE
  5
6446
  8
0
 10
112.3104934931315
 20
84.535233207056081
 30
0.0
 11
112.9178740851128
 21
84.535233207056081
 31
0.0
  0
LINE
  5
6447
  8
0
 10
111.9178740851128
 20
83.391534705172532
 30
0.0
 11
111.9178740851128
 21
80.035233207056095
 31
0.0
  0
LINE
  5
6448
  8
0
 10
112.24038130814139
 20
84.035233207056066
 30
0.0
 11
112.9178740851128
 21
84.035233207056066
 31
0.0
  0
LINE
  5
6449
  8
0
 10
111.4178740851128
 20
82.93881185449365
 30
0.0
 11
111.4178740851128
 21
80.035233207056095
 31
0.0
  0
LINE
  5
644A
  8
0
 10
112.01820434239519
 20
83.535233207056081
 30
0.0
 11
112.9178740851128
 21
83.535233207056081
 31
0.0
  0
LINE
  5
644B
  8
0
 10
110.9178740851127
 20
82.720299867607608
 30
0.0
 11
110.9178740851127
 21
80.035233207056095
 31
0.0
  0
LINE
  5
644C
  8
0
 10
112.2003822359747
 20
94.959746652796994
 30
0.0
 11
107.9178740851127
 21
97.540468245259433
 31
0.0
  0
LINE
  5
644D
  8
0
 10
112.9178740851128
 20
95.694912397170356
 30
0.0
 11
107.9178740851127
 21
98.708008346495205
 31
0.0
  0
LINE
  5
644E
  8
0
 10
112.9178740851128
 20
96.862452498406086
 30
0.0
 11
111.2697781138264
 21
97.855626757442366
 31
0.0
  0
LINE
  5
644F
  8
0
 10
107.9178740851127
 20
96.862452498406086
 30
0.0
 11
109.565970056399
 21
97.855626757442366
 31
0.0
  0
LINE
  5
6450
  8
0
 10
107.9178740851127
 20
95.694912397170356
 30
0.0
 11
112.9178740851128
 21
98.708008346495205
 31
0.0
  0
LINE
  5
6451
  8
0
 10
108.6353659342509
 20
94.959746652796994
 30
0.0
 11
112.9178740851128
 21
97.540468245259433
 31
0.0
  0
LINE
  5
6452
  8
0
 10
112.9178740851128
 20
105.035233207056
 30
0.0
 11
112.9178740851128
 21
95.035233207056095
 31
0.0
  0
LINE
  5
6453
  8
0
 10
107.9178740851127
 20
105.035233207056
 30
0.0
 11
107.9178740851127
 21
95.035233207056095
 31
0.0
  0
LINE
  5
6454
  8
0
 10
107.9178740851127
 20
88.535233207056081
 30
0.0
 11
112.9178740851128
 21
88.535233207056081
 31
0.0
  0
LINE
  5
6455
  8
0
 10
107.9178740851127
 20
89.035233207056066
 30
0.0
 11
112.9178740851128
 21
89.035233207056066
 31
0.0
  0
LINE
  5
6456
  8
0
 10
107.9178740851127
 20
89.535233207056081
 30
0.0
 11
112.9178740851128
 21
89.535233207056081
 31
0.0
  0
LINE
  5
6457
  8
0
 10
107.9178740851127
 20
90.035233207056095
 30
0.0
 11
112.9178740851128
 21
90.035233207056095
 31
0.0
  0
LINE
  5
6458
  8
0
 10
110.6639271743574
 20
95.043166101965525
 30
0.0
 11
112.9178740851128
 21
96.378240271605918
 31
0.0
  0
LINE
  5
6459
  8
0
 10
110.171820995868
 20
95.043166101965525
 30
0.0
 11
107.9178740851127
 21
96.378240271605918
 31
0.0
  0
LINE
  5
645A
  8
0
 10
112.9178740851128
 20
100.3650728021131
 30
0.0
 11
107.9178740851127
 21
103.378168751438
 31
0.0
  0
LINE
  5
645B
  8
0
 10
112.9178740851128
 20
101.53261290334891
 30
0.0
 11
107.9178740851127
 21
104.5457088526736
 31
0.0
  0
LINE
  5
645C
  8
0
 10
112.9178740851128
 20
102.70015300458449
 30
0.0
 11
109.0704919279795
 21
104.9472981858831
 31
0.0
  0
CIRCLE
  5
645D
  8
0
 10
110.4178740851128
 20
99.545708852673727
 30
0.0
 40
1.8926483991381231
  0
TEXT
  5
645E
  8
0
 10
109.7512074184461
 20
98.545708852673727
 30
0.0
 40
2.0
  1
3
 72
     1
 11
110.4178740851128
 21
99.545708852673727
 31
0.0
 73
     2
  0
LINE
  5
645F
  8
0
 10
107.9178740851127
 20
100.3650728021131
 30
0.0
 11
112.9178740851128
 21
103.378168751438
 31
0.0
  0
LINE
  5
6460
  8
0
 10
107.9178740851127
 20
102.70015300458449
 30
0.0
 11
111.765256242246
 21
104.9472981858831
 31
0.0
  0
LINE
  5
6461
  8
0
 10
107.9178740851127
 20
101.53261290334891
 30
0.0
 11
112.9178740851128
 21
104.5457088526736
 31
0.0
  0
LINE
  5
6462
  8
0
 10
108.525575222829
 20
99.509336080440235
 30
0.0
 11
107.9178740851127
 21
99.875548447730864
 31
0.0
  0
LINE
  5
6463
  8
0
 10
108.7927785004387
 20
100.51585435899349
 30
0.0
 11
107.9178740851127
 21
101.0430885489664
 31
0.0
  0
LINE
  5
6464
  8
0
 10
109.5494925516544
 20
101.2273840517261
 30
0.0
 11
107.9178740851127
 21
102.2106286502022
 31
0.0
  0
LINE
  5
6465
  8
0
 10
107.9178740851127
 20
99.197532700877474
 30
0.0
 11
108.5253101112545
 21
99.563585306845766
 31
0.0
  0
LINE
  5
6466
  8
0
 10
107.9178740851127
 20
103.86769310582019
 30
0.0
 11
109.9067646529948
 21
105.0504662994669
 31
0.0
  0
LINE
  5
6467
  8
0
 10
107.9178740851127
 20
98.029992599641758
 30
0.0
 11
108.8008846970236
 21
98.562111739233728
 31
0.0
  0
LINE
  5
6468
  8
0
 10
112.9178740851128
 20
98.029992599641758
 30
0.0
 11
112.0348634732017
 21
98.562111739233728
 31
0.0
  0
LINE
  5
6469
  8
0
 10
112.9178740851128
 20
99.197532700877474
 30
0.0
 11
112.310438058971
 21
99.563585306845766
 31
0.0
  0
LINE
  5
646A
  8
0
 10
112.9178740851128
 20
103.86769310582019
 30
0.0
 11
110.92898351723071
 21
105.0504662994669
 31
0.0
  0
LINE
  5
646B
  8
0
 10
111.2862556185712
 20
101.2273840517261
 30
0.0
 11
112.9178740851128
 21
102.2106286502022
 31
0.0
  0
LINE
  5
646C
  8
0
 10
112.0429696697869
 20
100.51585435899349
 30
0.0
 11
112.9178740851128
 21
101.0430885489664
 31
0.0
  0
LINE
  5
646D
  8
0
 10
112.3101729473965
 20
99.509336080440235
 30
0.0
 11
112.9178740851128
 21
99.875548447730864
 31
0.0
  0
TEXT
  5
646E
  8
0
 10
109.7512074184461
 20
113.5457088526736
 30
0.0
 40
2.0
  1
2
 72
     1
 11
110.4178740851128
 21
114.5457088526736
 31
0.0
 73
     2
  0
LINE
  5
646F
  8
0
 10
112.3101729473965
 20
114.50933608044021
 30
0.0
 11
112.9178740851128
 21
114.87554844773079
 31
0.0
  0
CIRCLE
  5
6470
  8
0
 10
110.4178740851128
 20
114.5457088526736
 30
0.0
 40
1.8926483991381231
  0
LINE
  5
6471
  8
0
 10
107.9178740851127
 20
120.035233207056
 30
0.0
 11
107.9178740851127
 21
110.035233207056
 31
0.0
  0
LINE
  5
6472
  8
0
 10
112.9178740851128
 20
120.035233207056
 30
0.0
 11
112.9178740851128
 21
110.035233207056
 31
0.0
  0
LINE
  5
6473
  8
0
 10
110.6639271743574
 20
110.0431661019654
 30
0.0
 11
112.9178740851128
 21
111.3782402716057
 31
0.0
  0
LINE
  5
6474
  8
0
 10
107.9178740851127
 20
110.6949123971703
 30
0.0
 11
112.9178740851128
 21
113.70800834649521
 31
0.0
  0
LINE
  5
6475
  8
0
 10
108.6353659342509
 20
109.9597466527968
 30
0.0
 11
112.9178740851128
 21
112.5404682452594
 31
0.0
  0
LINE
  5
6476
  8
0
 10
107.9178740851127
 20
114.1975327008774
 30
0.0
 11
108.5253101112545
 21
114.5635853068457
 31
0.0
  0
LINE
  5
6477
  8
0
 10
107.9178740851127
 20
113.0299925996417
 30
0.0
 11
108.8008846970236
 21
113.5621117392336
 31
0.0
  0
LINE
  5
6478
  8
0
 10
107.9178740851127
 20
111.8624524984059
 30
0.0
 11
109.565970056399
 21
112.8556267574422
 31
0.0
  0
LINE
  5
6479
  8
0
 10
107.9178740851127
 20
115.3650728021132
 30
0.0
 11
112.9178740851128
 21
118.378168751438
 31
0.0
  0
LINE
  5
647A
  8
0
 10
107.9178740851127
 20
117.70015300458449
 30
0.0
 11
111.765256242246
 21
119.9472981858832
 31
0.0
  0
LINE
  5
647B
  8
0
 10
107.9178740851127
 20
116.53261290334891
 30
0.0
 11
112.9178740851128
 21
119.5457088526737
 31
0.0
  0
LINE
  5
647C
  8
0
 10
107.9178740851127
 20
118.86769310582019
 30
0.0
 11
109.9067646529948
 21
120.0504662994669
 31
0.0
  0
LINE
  5
647D
  8
0
 10
112.0429696697869
 20
115.51585435899349
 30
0.0
 11
112.9178740851128
 21
116.0430885489664
 31
0.0
  0
LINE
  5
647E
  8
0
 10
111.2862556185712
 20
116.2273840517263
 30
0.0
 11
112.9178740851128
 21
117.2106286502023
 31
0.0
  0
SOLID
  5
647F
  8
0
 10
138.6345623420101
 20
86.453142265636885
 30
0.0
 11
143.6345623420101
 21
86.453142265636885
 31
0.0
 12
138.6345623420101
 22
76.45314226563687
 32
0.0
 13
143.6345623420101
 23
76.45314226563687
 33
0.0
  0
LINE
  5
6480
  8
0
 10
138.6345623420101
 20
86.453142265636885
 30
0.0
 11
138.6345623420101
 21
76.45314226563687
 31
0.0
  0
LINE
  5
6481
  8
0
 10
143.6345623420101
 20
86.453142265636885
 30
0.0
 11
143.6345623420101
 21
76.45314226563687
 31
0.0
  0
LINE
  5
6482
  8
0
 10
142.6345623420101
 20
101.4531422656367
 30
0.0
 11
142.6345623420101
 21
91.453142265636885
 31
0.0
  0
LINE
  5
6483
  8
0
 10
138.6345623420101
 20
101.4531422656367
 30
0.0
 11
138.6345623420101
 21
91.453142265636885
 31
0.0
  0
LINE
  5
6484
  8
0
 10
139.6345623420101
 20
101.4531422656367
 30
0.0
 11
139.6345623420101
 21
91.453142265636885
 31
0.0
  0
LINE
  5
6485
  8
0
 10
143.6345623420101
 20
101.4531422656367
 30
0.0
 11
143.6345623420101
 21
91.453142265636885
 31
0.0
  0
TEXT
  5
6486
  8
0
 10
115.9178740851128
 20
128.78523320705591
 30
0.0
 40
2.5
  1
非変質
 11
115.9178740851128
 21
130.03523320705591
 31
0.0
 73
     2
  0
TEXT
  5
6487
  8
0
 10
108.13205605661651
 20
139.4439979658448
 30
0.0
 40
3.0
  1
変質
 11
108.13205605661651
 21
140.9439979658448
 31
0.0
 73
     2
  0
LINE
  5
6488
  8
0
 10
107.9178740851127
 20
135.03523320705591
 30
0.0
 11
107.9178740851127
 21
125.035233207056
 31
0.0
  0
LINE
  5
6489
  8
0
 10
112.9178740851128
 20
135.03523320705591
 30
0.0
 11
112.9178740851128
 21
125.035233207056
 31
0.0
  0
CIRCLE
  5
648A
  8
0
 10
110.4178740851128
 20
129.54570885267361
 30
0.0
 40
1.8926483991381231
  0
TEXT
  5
648B
  8
0
 10
110.0845407517794
 20
128.54570885267361
 30
0.0
 40
2.0
  1
1
 72
     1
 11
110.4178740851128
 21
129.54570885267361
 31
0.0
 73
     2
  0
CIRCLE
  5
648C
  8
0
 10
239.94763757692439
 20
61.491202559119841
 30
0.0
 40
2.0
  0
TEXT
  5
648D
  8
0
 10
238.78097091025779
 20
65.241202559119841
 30
0.0
 40
2.5
  1
水
 72
     1
 11
239.94763757692439
 21
66.491202559119841
 31
0.0
 73
     2
  0
CIRCLE
  5
648E
  8
0
 10
241.0946591810638
 20
134.00754330139841
 30
0.0
 40
0.4
  0
CIRCLE
  5
648F
  8
0
 10
241.0946591810638
 20
130.67354330139841
 30
0.0
 40
0.4
  0
CIRCLE
  5
6490
  8
0
 10
241.0946591810638
 20
127.33954330139839
 30
0.0
 40
0.4
  0
TEXT
  5
6491
  8
0
 10
236.28542084270271
 20
140.3558688288129
 30
0.0
 40
3.0
  1
保孔管
 11
236.28542084270271
 21
141.8558688288129
 31
0.0
 73
     2
  0
SOLID
  5
6492
  8
0
 10
238.5898725017959
 20
104.8777582978821
 30
0.0
 11
243.5898725017959
 21
104.8777582978821
 31
0.0
 12
238.5898725017959
 22
94.877758297882082
 32
0.0
 13
243.5898725017959
 23
94.877758297882082
 33
0.0
  0
TEXT
  5
6493
  8
0
 10
238.78097091025779
 20
60.241202559119841
 30
0.0
 40
2.5
  1
間
 72
     1
 11
239.94763757692439
 21
61.491202559119841
 31
0.0
 73
     2
  0
TEXT
  5
6494
  8
0
 10
238.2827115793522
 20
44.147100033843657
 30
0.0
 40
2.5
  1
カッコ内は副題を記入
 11
238.2827115793522
 21
45.397100033843657
 31
0.0
 73
     2
  0
TEXT
  5
6495
  8
0
 10
238.2550421822809
 20
48.955264061456738
 30
0.0
 40
3.0
  1
備考
 11
238.2550421822809
 21
50.455264061456752
 31
0.0
 73
     2
  0
TEXT
  5
6496
  8
0
 10
238.78097091025779
 20
70.241202559119841
 30
0.0
 40
2.5
  1
伸
 72
     1
 11
239.94763757692439
 21
71.491202559119841
 31
0.0
 73
     2
  0
TEXT
  5
6497
  8
0
 10
238.78097091025779
 20
75.241202559119841
 30
0.0
 40
2.5
  1
傾
 72
     1
 11
239.94763757692439
 21
76.491202559119841
 31
0.0
 73
     2
  0
CIRCLE
  5
6498
  8
0
 10
239.94763757692439
 20
66.491202559119841
 30
0.0
 40
2.0
  0
CIRCLE
  5
6499
  8
0
 10
239.94763757692439
 20
71.491202559119841
 30
0.0
 40
2.0
  0
CIRCLE
  5
649A
  8
0
 10
239.94763757692439
 20
76.491202559119841
 30
0.0
 40
2.0
  0
CIRCLE
  5
649B
  8
0
 10
239.94763757692439
 20
81.491202559119841
 30
0.0
 40
2.0
  0
TEXT
  5
649C
  8
0
 10
238.78097091025779
 20
80.241202559119841
 30
0.0
 40
2.5
  1
歪
 72
     1
 11
239.94763757692439
 21
81.491202559119841
 31
0.0
 73
     2
  0
TEXT
  5
649D
  8
0
 10
238.2550421822809
 20
85.721363304916338
 30
0.0
 40
3.0
  1
計測機器
 11
238.2550421822809
 21
87.221363304916338
 31
0.0
 73
     2
  0
TEXT
  5
649E
  8
0
 10
238.2827115793522
 20
33.117186463827323
 30
0.0
 40
2.5
  1
記入する項目の例
 11
238.2827115793522
 21
34.367186463827323
 31
0.0
 73
     2
  0
TEXT
  5
649F
  8
0
 10
238.40523536796431
 20
19.702986463827301
 30
0.0
 40
2.5
  1
その他
 11
238.40523536796431
 21
20.952986463827301
 31
0.0
 73
     2
  0
TEXT
  5
64A0
  8
0
 10
238.40523536796431
 20
24.174386463827311
 30
0.0
 40
2.5
  1
試料採取位置
 11
238.40523536796431
 21
25.424386463827311
 31
0.0
 73
     2
  0
TEXT
  5
64A1
  8
0
 10
238.40523536796431
 20
28.645786463827321
 30
0.0
 40
2.5
  1
原位置試験、
 11
238.40523536796431
 21
29.895786463827321
 31
0.0
 73
     2
  0
TEXT
  5
64A2
  8
0
 10
238.2827115793522
 20
39.675670381059803
 30
0.0
 40
2.5
  1
本欄は文字列に限る
 11
238.2827115793522
 21
40.925670381059803
 31
0.0
 73
     2
  0
TEXT
  5
64A5
  8
0
 10
192.413872877176
 20
128.78523320705591
 30
0.0
 40
2.5
  1
汲：汲上げ法
 11
192.413872877176
 21
130.03523320705591
 31
0.0
 73
     2
  0
TEXT
  5
64A6
  8
0
 10
192.413872877176
 20
133.85058378263011
 30
0.0
 40
2.5
  1
自：自然水位法
 11
192.413872877176
 21
135.10058378263011
 31
0.0
 73
     2
  0
TEXT
  5
64A7
  8
0
 10
192.413872877176
 20
139.4439979658448
 30
0.0
 40
3.0
  1
地下水検層
 11
192.413872877176
 21
140.9439979658448
 31
0.0
 73
     2
  0
TEXT
  5
64B1
  8
0
 10
148.56281205234791
 20
80.20314226563687
 30
0.0
 40
2.5
  1
セメンテイング
 11
148.56281205234791
 21
81.45314226563687
 31
0.0
 73
     2
  0
TEXT
  5
64B2
  8
0
 10
148.56281205234791
 20
95.203142265636885
 30
0.0
 40
2.5
  1
ケーシング
 11
148.56281205234791
 21
96.453142265636885
 31
0.0
 73
     2
  0
LINE
  5
64C5
  8
0
 10
238.5898725017959
 20
104.8777582978821
 30
0.0
 11
238.5898725017959
 21
94.877758297882082
 31
0.0
  0
LINE
  5
64C6
  8
0
 10
238.5898725017959
 20
119.877758297882
 30
0.0
 11
238.5898725017959
 21
109.877758297882
 31
0.0
  0
LINE
  5
64C7
  8
0
 10
238.5898725017959
 20
134.87775829788211
 30
0.0
 11
238.5898725017959
 21
124.8777582978821
 31
0.0
  0
CIRCLE
  5
64C8
  8
0
 10
240.2611591810637
 20
132.34054330139841
 30
0.0
 40
0.4
  0
CIRCLE
  5
64C9
  8
0
 10
239.4276591810638
 20
130.67354330139841
 30
0.0
 40
0.4
  0
CIRCLE
  5
64CA
  8
0
 10
239.4276591810638
 20
127.33954330139839
 30
0.0
 40
0.4
  0
CIRCLE
  5
64CB
  8
0
 10
240.2611591810637
 20
125.67254330139841
 30
0.0
 40
0.4
  0
CIRCLE
  5
64CC
  8
0
 10
240.2611591810637
 20
129.00654330139841
 30
0.0
 40
0.4
  0
CIRCLE
  5
64CD
  8
0
 10
239.4276591810638
 20
134.00754330139841
 30
0.0
 40
0.4
  0
TEXT
  5
64CE
  8
0
 10
243.7581270978084
 20
70.12148328956799
 30
0.0
 40
2.5
  1
垂直伸縮計、多層移動量計
 11
243.7581270978084
 21
71.37148328956799
 31
0.0
 73
     2
  0
TEXT
  5
64CF
  8
0
 10
243.7581270978084
 20
80.121483289567948
 30
0.0
 40
2.5
  1
パイプひずみ計
 11
243.7581270978084
 21
81.371483289567948
 31
0.0
 73
     2
  0
TEXT
  5
64D0
  8
0
 10
243.7581270978084
 20
65.121483289567976
 30
0.0
 40
2.5
  1
地下水位計
 11
243.7581270978084
 21
66.371483289567976
 31
0.0
 73
     2
  0
TEXT
  5
64D1
  8
0
 10
243.7581270978084
 20
60.121483289567969
 30
0.0
 40
2.5
  1
間隙水圧計
 11
243.7581270978084
 21
61.371483289567969
 31
0.0
 73
     2
  0
TEXT
  5
64D2
  8
0
 10
243.7581270978084
 20
75.241202559119841
 30
0.0
 40
2.5
  1
孔内傾斜計
 11
243.7581270978084
 21
76.491202559119841
 31
0.0
 73
     2
  0
TEXT
  5
64D3
  8
0
 10
248.51812221213359
 20
98.627758297882124
 30
0.0
 40
2.5
  1
遮水区間
 11
248.51812221213359
 21
99.877758297882124
 31
0.0
 73
     2
  0
TEXT
  5
64D4
  8
0
 10
248.51812221213359
 20
113.627758297882
 30
0.0
 40
2.5
  1
無孔区間
 11
248.51812221213359
 21
114.877758297882
 31
0.0
 73
     2
  0
LINE
  5
64D5
  8
0
 10
243.5898725017959
 20
104.8777582978821
 30
0.0
 11
243.5898725017959
 21
94.877758297882082
 31
0.0
  0
LINE
  5
64D6
  8
0
 10
243.5898725017959
 20
119.877758297882
 30
0.0
 11
243.5898725017959
 21
109.877758297882
 31
0.0
  0
TEXT
  5
64D7
  8
0
 10
248.51812221213359
 20
128.62775829788211
 30
0.0
 40
2.5
  1
有孔区間
 11
248.51812221213359
 21
129.87775829788211
 31
0.0
 73
     2
  0
CIRCLE
  5
64D8
  8
0
 10
241.92815918106371
 20
132.34054330139841
 30
0.0
 40
0.4
  0
LINE
  5
64D9
  8
0
 10
243.5898725017959
 20
134.87775829788211
 30
0.0
 11
243.5898725017959
 21
124.8777582978821
 31
0.0
  0
CIRCLE
  5
64DA
  8
0
 10
241.92815918106371
 20
129.00654330139841
 30
0.0
 40
0.4
  0
CIRCLE
  5
64DB
  8
0
 10
242.76165918106389
 20
130.67354330139841
 30
0.0
 40
0.4
  0
CIRCLE
  5
64DC
  8
0
 10
242.76165918106389
 20
127.33954330139839
 30
0.0
 40
0.4
  0
CIRCLE
  5
64DD
  8
0
 10
241.92815918106371
 20
125.67254330139841
 30
0.0
 40
0.4
  0
CIRCLE
  5
64DE
  8
0
 10
242.76165918106389
 20
134.00754330139841
 30
0.0
 40
0.4
  0
TEXT
  5
64DF
  8
0
 10
195.32666484236159
 20
480.7963034551309
 30
0.0
 40
3.0
  1
地　　下　　水　　文
 72
     1
 11
212.92666484236159
 21
480.39630345513081
 31
0.0
 73
     1
  0
TEXT
  5
64E0
  8
0
 10
198.46370386358581
 20
475.67080819121799
 30
0.0
 40
2.0
  1
作業日毎の孔内水位
 72
     1
 11
208.99703719691911
 21
475.40414152455139
 31
0.0
 73
     1
  0
TEXT
  5
64E1
  8
0
 10
225.31935636474981
 20
475.4830580743909
 30
0.0
 40
2.5
  1
孔壁保護
 72
     1
 11
230.98602303141641
 21
475.14972474105758
 31
0.0
 73
     1
  0
TEXT
  5
64E2
  8
0
 10
232.6666666666666
 20
461.24750007882091
 30
0.0
 40
2.5
  1
理 由
 72
     4
 11
236.0
 21
462.49750007882091
 31
0.0
  0
TEXT
  5
64E3
  8
0
 10
232.58333333333329
 20
471.01901398764602
 30
0.0
 40
2.5
  1
実 施
 72
     4
 11
236.0
 21
472.26901398764602
 31
0.0
  0
TEXT
  5
64E4
  8
0
 10
247.9601105762938
 20
476.89284323383271
 30
0.0
 40
2.5
  1
地下水検層
  7
STANDATDT
 72
     4
 11
247.9601105762938
 21
469.64284323383271
 31
0.0
  0
TEXT
  5
64E5
  8
0
 10
243.79479831475291
 20
465.75805984049879
 30
0.0
 40
2.5
  1
汲
  7
STANDATDT
 72
     4
 11
243.79479831475291
 21
464.50805984049867
 31
0.0
  0
TEXT
  5
64E6
  8
0
 10
243.79479831475291
 20
477.40631691394651
 30
0.0
 40
2.5
  1
方法
  7
STANDATDT
 72
     4
 11
243.79479831475291
 21
474.65631691394663
 31
0.0
  0
TEXT
  5
64E7
  8
0
 10
243.88318706893361
 20
468.32255227741581
 30
0.0
 40
2.5
  1
・
  7
STANDATDT
 72
     4
 11
243.88318706893361
 21
466.90588561074918
 31
0.0
  0
TEXT
  5
64E8
  8
0
 10
243.79479831475291
 20
470.2753104920431
 30
0.0
 40
2.5
  1
自
  7
STANDATDT
 72
     4
 11
243.79479831475291
 21
468.94197715870979
 31
0.0
  0
TEXT
  5
64E9
  8
0
 10
253.53720931285639
 20
482.89284323383282
 30
0.0
 40
2.5
  1
保　　孔　　管
  7
STANDATDT
 72
     4
 11
253.53720931285639
 21
472.64284323383282
 31
0.0
  0
TEXT
  5
64EA
  8
0
 10
258.49999999999989
 20
482.89284323383282
 30
0.0
 40
2.5
  1
計　測　機　器
  7
STANDATDT
 72
     4
 11
258.49999999999989
 21
472.64284323383282
 31
0.0
  0
TEXT
  5
64EB
  8
0
 10
264.22598708334692
 20
471.20581604591331
 30
0.0
 40
2.5
  1
（　　　　　）
 72
     1
 11
274.30932041668029
 21
470.87248271257999
 31
0.0
 73
     1
  0
TEXT
  5
64EC
  8
0
 10
265.70932041668021
 20
478.2333793678095
 30
0.0
 40
3.0
  1
備　　　考
 72
     1
 11
274.30932041668029
 21
477.83337936780953
 31
0.0
 73
     1
  0
TEXT
  5
64ED
  8
0
 10
228.41833910692731
 20
473.10969654483068
 30
0.0
 40
2.5
  1
種　　類
  7
STANDATDT
 72
     4
 11
228.41833910692731
 21
467.35969654483068
 31
0.0
  0
TEXT
  5
64EE
  8
0
 10
223.40645648222841
 20
473.1759698113903
 30
0.0
 40
2.5
  1
孔 径
  7
STANDATDT
 72
     4
 11
223.40645648222841
 21
469.6759698113903
 31
0.0
  0
TEXT
  5
64EF
  8
0
 10
219.02538429870481
 20
473.50277753048562
 30
0.0
 40
2.0
  1
ケ
  7
STANDATDT
 72
     4
 11
219.02538429870481
 21
472.50277753048562
 31
0.0
  0
TEXT
  5
64F0
  8
0
 10
214.9390900392535
 20
473.3459647355939
 30
0.0
 40
2.0
  1
下端深度
  7
STANDATDT
 72
     4
 11
214.9390900392535
 21
468.67929806892721
 31
0.0
  0
TEXT
  5
64F1
  8
0
 10
220.46586701798191
 20
460.94851173445443
 30
0.0
 40
1.5
  1
（mm）
 72
     1
 11
223.1658670179819
 21
462.44851173445431
 31
0.0
 73
     3
  0
TEXT
  5
64F2
  8
0
 10
213.55864189052579
 20
461.09544017128502
 30
0.0
 40
1.5
  1
（ｍ）
 72
     1
 11
216.00864189052581
 21
462.59544017128491
 31
0.0
 73
     3
  0
TEXT
  5
64F3
  8
0
 10
206.55000000000001
 20
461.09544017128502
 30
0.0
 40
1.5
  1
（ｍ）
 72
     1
 11
209.0
 21
462.59544017128491
 31
0.0
 73
     3
  0
TEXT
  5
64F4
  8
0
 10
206.0
 20
466.25786127255799
 30
0.0
 40
1.8
  1
作業後
 72
     1
 11
209.0
 21
468.05786127255811
 31
0.0
 73
     3
  0
LINE
  5
64F5
  8
0
 10
205.55327652769159
 20
465.59227724000021
 30
0.0
 11
212.30281296402401
 21
465.59227724000021
 31
0.0
  0
TEXT
  5
64F6
  8
0
 10
206.3544752315378
 20
469.01336875479302
 30
0.0
 40
2.0
  1
水 位
 72
     4
 11
209.0878085648711
 21
470.01336875479291
 31
0.0
  0
TEXT
  5
64F7
  8
0
 10
206.4211418982045
 20
471.45783885169368
 30
0.0
 40
2.0
  1
孔 内
 72
     4
 11
209.0878085648711
 21
472.45783885169368
 31
0.0
  0
TEXT
  5
64F8
  8
0
 10
200.8152283021663
 20
472.93794499172321
 30
0.0
 40
2.5
  1
掘進月日
  7
STANDATDT
 72
     4
 11
200.8152283021663
 21
467.27127832505653
 31
0.0
  0
TEXT
  5
64F9
  8
0
 10
188.45617209643979
 20
461.09570024504831
 30
0.0
 40
1.5
  1
（l/分）
 72
     1
 11
192.0311720964398
 21
462.59570024504831
 31
0.0
 73
     3
  0
TEXT
  5
64FA
  8
0
 10
192.2475316032295
 20
477.41771661845962
 30
0.0
 40
3.0
  1
排 水 量
  7
STANDATDT
 72
     4
 11
192.2475316032295
 21
470.51771661845959
 31
0.0
  0
TEXT
  5
64FB
  8
0
 10
182.2475316032295
 20
477.41771661845962
 30
0.0
 40
3.0
  1
送 水 量
  7
STANDATDT
 72
     4
 11
182.2475316032295
 21
470.51771661845959
 31
0.0
  0
TEXT
  5
64FC
  8
0
 10
178.45617209643979
 20
461.09570024504831
 30
0.0
 40
1.5
  1
（l/分）
 72
     1
 11
182.0311720964398
 21
462.59570024504831
 31
0.0
 73
     3
  0
TEXT
  5
64FD
  8
0
 10
206.0
 20
463.25006857333233
 30
0.0
 40
1.8
  1
作業前
 72
     1
 11
209.0
 21
465.05006857333228
 31
0.0
 73
     3
  0
TEXT
  5
64FE
  8
0
 10
73.775838725322089
 20
49.114004723854762
 30
0.0
 40
2.0
  1
コア形状・風化・変質については、
 11
73.775838725322089
 21
50.114004723854748
 31
0.0
 73
     2
  0
TEXT
  5
64FF
  8
0
 10
73.775838725322089
 20
45.316051797332612
 30
0.0
 40
2.0
  1
必要に応じて図模様を用いても可
 11
73.775838725322089
 21
46.316051797332598
 31
0.0
 73
     2
  0
LINE
  5
6501
  8
0
 10
10.0
 20
159.14284323383271
 30
0.0
 11
10.0
 21
459.14284323383271
 31
0.0
  0
LINE
  5
6502
  8
0
 10
10.0
 20
459.14284323383271
 30
0.0
 11
288.0
 21
459.14284323383271
 31
0.0
  0
LINE
  5
6503
  8
0
 10
288.0
 20
459.14284323383271
 30
0.0
 11
288.0
 21
159.14284323383271
 31
0.0
  0
LINE
  5
6504
  8
0
 10
288.0
 20
159.14284323383271
 30
0.0
 11
10.0
 21
159.14284323383271
 31
0.0
  0
LINE
  5
6505
  8
0
 10
10.0
 20
460.14284323383282
 30
0.0
 11
10.0
 21
485.14284323383282
 31
0.0
  0
LINE
  5
6506
  8
0
 10
10.0
 20
485.14284323383282
 30
0.0
 11
288.0
 21
485.14284323383282
 31
0.0
  0
LINE
  5
6507
  8
0
 10
288.0
 20
485.14284323383282
 30
0.0
 11
288.0
 21
460.14284323383282
 31
0.0
  0
LINE
  5
6508
  8
0
 10
288.0
 20
460.14284323383282
 30
0.0
 11
10.0
 21
460.14284323383282
 31
0.0
  0
TEXT
  5
6509
  8
0
 10
245.044798314753
 20
471.00168847969883
 30
0.0
 40
2.5
  1
（
 50
270.0
  7
STANDATDT
 72
     4
 11
243.79479831475291
 21
471.00168847969883
 31
0.0
  0
TEXT
  5
650A
  8
0
 10
245.044798314753
 20
461.65813477789351
 30
0.0
 40
2.5
  1
）
 50
270.0
  7
STANDATDT
 72
     4
 11
243.79479831475291
 21
461.65813477789351
 31
0.0
  0
LINE
  5
650B
  8
0
 10
19.786519179760031
 20
130.87217226131131
 30
0.0
 11
20.516901251921119
 21
130.87217226131131
 31
0.0
  0
LINE
  5
650C
  8
0
 10
19.786519179760031
 20
129.2026934649831
 30
0.0
 11
20.516901251921119
 21
129.2026934649831
 31
0.0
  0
LINE
  5
650D
  8
0
 10
20.143847232452341
 20
130.8712934649831
 30
0.0
 11
20.143847232452341
 21
129.2026934649831
 31
0.0
  0
LINE
  5
650E
  8
0
 10
19.43203432979498
 20
115.8826330157984
 30
0.0
 11
20.859653627935121
 21
115.8826330157984
 31
0.0
  0
LINE
  5
650F
  8
0
 10
19.43203432979498
 20
114.213990362799
 30
0.0
 11
20.859653627935121
 21
114.213990362799
 31
0.0
  0
LINE
  5
6510
  8
0
 10
19.822057020734519
 20
115.8826330157984
 30
0.0
 11
19.822057020734519
 21
114.213990362799
 31
0.0
  0
LINE
  5
6511
  8
0
 10
20.461111998885809
 20
115.8826330157984
 30
0.0
 11
20.461111998885809
 21
114.213990362799
 31
0.0
  0
LINE
  5
6512
  8
0
 10
20.14590036830667
 20
100.8821989739963
 30
0.0
 11
20.14590036830667
 21
99.213598973996355
 31
0.0
  0
LINE
  5
6513
  8
0
 10
19.25288594169001
 20
100.8821989739963
 30
0.0
 11
21.038914794923361
 21
100.8821989739963
 31
0.0
  0
LINE
  5
6514
  8
0
 10
19.616590899104711
 20
100.8801376850862
 30
0.0
 11
19.616590899104711
 21
99.213598973996355
 31
0.0
  0
LINE
  5
6515
  8
0
 10
19.25288594169001
 20
99.213598973996355
 30
0.0
 11
21.038914794923361
 21
99.213598973996355
 31
0.0
  0
LINE
  5
6516
  8
0
 10
20.675209837508628
 20
100.8801376850862
 30
0.0
 11
20.675209837508628
 21
99.213598973996355
 31
0.0
  0
LINE
  5
6517
  8
0
 10
19.10130474289188
 20
85.881191193623664
 30
0.0
 11
20.345220560929871
 21
85.881191193623664
 31
0.0
  0
LINE
  5
6518
  8
0
 10
19.10130474289188
 20
84.211712397295514
 30
0.0
 11
19.83168681505299
 21
84.211712397295514
 31
0.0
  0
LINE
  5
6519
  8
0
 10
19.458632795584201
 20
85.880312397295484
 30
0.0
 11
19.458632795584201
 21
84.211712397295514
 31
0.0
  0
LINE
  5
651A
  8
0
 10
20.87045090468688
 20
85.881191193623664
 30
0.0
 11
21.33265346838844
 21
85.881191193623664
 31
0.0
  0
LINE
  5
651B
  8
0
 10
20.059496128396169
 20
85.881191193623664
 30
0.0
 11
20.580524157466922
 21
84.211712397295514
 31
0.0
  0
LINE
  5
651C
  8
0
 10
21.101552186537671
 20
85.881191193623664
 30
0.0
 11
20.580524157466922
 21
84.211712397295514
 31
0.0
  0
LINE
  5
651D
  8
0
 10
20.788700094994621
 20
70.856405154789655
 30
0.0
 11
21.250902658696191
 21
70.856405154789655
 31
0.0
  0
LINE
  5
651E
  8
0
 10
21.01980137684539
 20
70.856405154789655
 30
0.0
 11
20.303705786570159
 21
69.186926358461506
 31
0.0
  0
LINE
  5
651F
  8
0
 10
19.587610196294911
 20
70.856405154789655
 30
0.0
 11
20.303705786570159
 21
69.186926358461506
 31
0.0
  0
LINE
  5
6520
  8
0
 10
19.356508914444131
 20
70.856405154789655
 30
0.0
 11
19.818711478145701
 21
70.856405154789655
 31
0.0
  0
LINE
  5
6521
  8
0
 10
21.142610080002441
 20
55.872163618096486
 30
0.0
 11
20.06315189926476
 21
55.872163618096486
 31
0.0
  0
LINE
  5
6522
  8
0
 10
21.142610080002441
 20
54.202684821768337
 30
0.0
 11
20.412228007841328
 21
54.202684821768337
 31
0.0
  0
LINE
  5
6523
  8
0
 10
20.785282027310121
 20
55.871284821768342
 30
0.0
 11
20.785282027310121
 21
54.202684821768337
 31
0.0
  0
LINE
  5
6524
  8
0
 10
19.537921555507751
 20
55.872163618096486
 30
0.0
 11
19.07571899180618
 21
55.872163618096486
 31
0.0
  0
LINE
  5
6525
  8
0
 10
20.348876331798461
 20
55.872163618096486
 30
0.0
 11
19.827848302727698
 21
54.202684821768337
 31
0.0
  0
LINE
  5
6526
  8
0
 10
19.30682027365696
 20
55.872163618096486
 30
0.0
 11
19.827848302727698
 21
54.202684821768337
 31
0.0
  0
LINE
  5
6527
  8
0
 10
21.183936293034542
 20
40.880066624696639
 30
0.0
 11
19.99854521484712
 21
40.880066624696639
 31
0.0
  0
LINE
  5
6528
  8
0
 10
21.192369270801009
 20
39.210587828368489
 30
0.0
 11
20.26402438291597
 21
39.210587828368489
 31
0.0
  0
LINE
  5
6529
  8
0
 10
20.949717108833958
 20
40.879187828368472
 30
0.0
 11
20.949717108833958
 21
39.210587828368489
 31
0.0
  0
LINE
  5
652A
  8
0
 10
19.512934960215141
 20
40.880066624696639
 30
0.0
 11
19.05073239651357
 21
40.880066624696639
 31
0.0
  0
LINE
  5
652B
  8
0
 10
20.229287339332132
 20
40.880066624696639
 30
0.0
 11
19.739374136549031
 21
39.210587828368489
 31
0.0
  0
LINE
  5
652C
  8
0
 10
20.507662058814262
 20
40.879187828368472
 30
0.0
 11
20.507662058814262
 21
39.210587828368489
 31
0.0
  0
LINE
  5
652D
  8
0
 10
19.281833678364361
 20
40.880066624696639
 30
0.0
 11
19.739374136549031
 21
39.210587828368489
 31
0.0
  0
LINE
  5
652E
  8
0
 10
21.24642099939204
 20
25.88324350652444
 30
0.0
 11
19.754165520818781
 21
25.88324350652444
 31
0.0
  0
LINE
  5
652F
  8
0
 10
21.254853977158518
 20
24.213764710196301
 30
0.0
 11
20.02674340571501
 21
24.213764710196301
 31
0.0
  0
LINE
  5
6530
  8
0
 10
21.012201815191471
 20
25.882364710196288
 30
0.0
 11
21.012201815191471
 21
24.213764710196301
 31
0.0
  0
LINE
  5
6531
  8
0
 10
19.47367749857505
 20
25.88324350652444
 30
0.0
 11
19.01147493487348
 21
25.88324350652444
 31
0.0
  0
LINE
  5
6532
  8
0
 10
20.64079869143676
 20
25.882364710196288
 30
0.0
 11
20.64079869143676
 21
24.213764710196301
 31
0.0
  0
LINE
  5
6533
  8
0
 10
19.24257621672427
 20
25.88324350652444
 30
0.0
 11
19.659136298948621
 21
24.213764710196301
 31
0.0
  0
LINE
  5
6534
  8
0
 10
20.26939556768205
 20
25.882364710196288
 30
0.0
 11
20.26939556768205
 21
24.213764710196301
 31
0.0
  0
LINE
  5
6535
  8
0
 10
20.075696381172961
 20
25.88324350652444
 30
0.0
 11
19.659136298948621
 21
24.213764710196301
 31
0.0
  0
TEXT
  5
6536
  8
0
 10
219.02538429870481
 20
469.85196567153321
 30
0.0
 40
2.0
  1
シング
  7
STANDATDT
 72
     4
 11
219.02538429870481
 21
466.45196567153329
 31
0.0
  0
TEXT
  5
6537
  8
0
 10
219.02538429870481
 20
470.64559776027158
 30
0.0
 40
2.0
  1
-
 50
90.0
  7
STANDATDT
 72
     4
 11
219.02538429870481
 21
470.64559776027158
 31
0.0
  0
LINE
  5
6568
  8
0
 10
203.830643433913
 20
51.537323350372972
 30
0.0
 11
193.83064343391271
 21
51.537323350372972
 31
0.0
  0
LINE
  5
6569
  8
0
 10
193.83064343391271
 20
61.537323350372937
 30
0.0
 11
203.830643433913
 21
61.537323350372937
 31
0.0
  0
LINE
  5
656A
  8
0
 10
193.83064343391271
 20
106.5373233503727
 30
0.0
 11
203.830643433913
 21
106.5373233503727
 31
0.0
  0
LINE
  5
656B
  8
0
 10
193.83064343391271
 20
106.5373233503727
 30
0.0
 11
203.830643433913
 21
106.5373233503727
 31
0.0
  0
LINE
  5
656C
  8
0
 10
193.83064343391271
 20
106.5373233503727
 30
0.0
 11
203.830643433913
 21
106.5373233503727
 31
0.0
  0
LINE
  5
656D
  8
0
 10
193.83064343391271
 20
76.537323350372958
 30
0.0
 11
203.830643433913
 21
76.537323350372958
 31
0.0
  0
LINE
  5
656E
  8
0
 10
193.83064343391271
 20
66.537323350372944
 30
0.0
 11
203.830643433913
 21
66.537323350372944
 31
0.0
  0
SOLID
  5
656F
  8
0
 10
193.83064343391271
 20
76.537323350372958
 30
0.0
 11
203.830643433913
 21
76.537323350372958
 31
0.0
 12
193.830643433913
 22
66.537323350372944
 32
0.0
 13
203.830643433913
 23
66.537323350372944
 33
0.0
  0
LINE
  5
6570
  8
0
 10
203.830643433913
 20
96.537323350372773
 30
0.0
 11
193.83064343391271
 21
96.537323350372773
 31
0.0
  0
LINE
  5
6571
  8
0
 10
193.83064343391271
 20
91.537323350372887
 30
0.0
 11
203.830643433913
 21
91.537323350372887
 31
0.0
  0
LINE
  5
6572
  8
0
 10
203.830643433913
 20
81.537323350372944
 30
0.0
 11
193.83064343391271
 21
81.537323350372944
 31
0.0
  0
LINE
  5
6573
  8
0
 10
193.830643433913
 20
76.537323350372958
 30
0.0
 11
193.830643433913
 21
66.537323350372944
 31
0.0
  0
LINE
  5
6574
  8
0
 10
193.830643433913
 20
61.537323350372937
 30
0.0
 11
193.830643433913
 21
51.537323350372972
 31
0.0
  0
LINE
  5
6575
  8
0
 10
193.830643433913
 20
91.537323350372887
 30
0.0
 11
193.830643433913
 21
81.537323350372944
 31
0.0
  0
LINE
  5
6576
  8
0
 10
193.830643433913
 20
106.5373233503727
 30
0.0
 11
193.830643433913
 21
96.537323350372773
 31
0.0
  0
TEXT
  5
6577
  8
0
 10
208.75889314425061
 20
55.287323350372972
 30
0.0
 40
2.5
  1
その他
 11
208.75889314425061
 21
56.537323350372972
 31
0.0
 73
     2
  0
TEXT
  5
6578
  8
0
 10
208.75889314425061
 20
70.287323350372958
 30
0.0
 40
2.5
  1
非検出
 11
208.75889314425061
 21
71.537323350372958
 31
0.0
 73
     2
  0
TEXT
  5
6579
  8
0
 10
208.75889314425061
 20
85.287323350372887
 30
0.0
 40
2.5
  1
下降流状検出
 11
208.75889314425061
 21
86.537323350372887
 31
0.0
 73
     2
  0
TEXT
  5
657A
  8
0
 10
208.75889314425061
 20
100.2873233503727
 30
0.0
 40
2.5
  1
上昇流状検出
 11
208.75889314425061
 21
101.5373233503727
 31
0.0
 73
     2
  0
LINE
  5
657B
  8
0
 10
203.830643433913
 20
76.537323350372958
 30
0.0
 11
203.830643433913
 21
66.537323350372944
 31
0.0
  0
LINE
  5
657C
  8
0
 10
203.830643433913
 20
61.537323350372937
 30
0.0
 11
203.830643433913
 21
51.537323350372972
 31
0.0
  0
LINE
  5
657D
  8
0
 10
203.830643433913
 20
91.537323350372887
 30
0.0
 11
203.830643433913
 21
81.537323350372944
 31
0.0
  0
LINE
  5
657E
  8
0
 10
199.1158828162614
 20
82.900125452638378
 30
0.0
 11
198.1158828162614
 21
83.900125452638335
 31
0.0
  0
LINE
  5
657F
  8
0
 10
199.1158828162614
 20
82.900125452638378
 30
0.0
 11
200.11588281626149
 21
83.900125452638335
 31
0.0
  0
LINE
  5
6580
  8
0
 10
199.1158828162614
 20
89.900125452638278
 30
0.0
 11
199.1158828162614
 21
82.900125452638378
 31
0.0
  0
LINE
  5
6581
  8
0
 10
199.1158828162614
 20
105.15877071083121
 30
0.0
 11
199.1158828162614
 21
98.15877071083122
 31
0.0
  0
LINE
  5
6582
  8
0
 10
199.1158828162614
 20
105.15877071083121
 30
0.0
 11
200.11588281626149
 21
104.15877071083121
 31
0.0
  0
LINE
  5
6583
  8
0
 10
199.1158828162614
 20
105.15877071083121
 30
0.0
 11
198.1158828162614
 21
104.15877071083121
 31
0.0
  0
LINE
  5
6584
  8
0
 10
203.830643433913
 20
106.5373233503727
 30
0.0
 11
203.830643433913
 21
96.537323350372773
 31
0.0
  0
TEXT
  5
6585
  8
0
 10
227.35040231287661
 20
4.6677950047653392
 30
0.0
 40
3.0
  1
地すべり調査用ボーリング柱状図様式
 11
227.35040231287661
 21
6.1677950047653392
 31
0.0
 73
     2
  0
LINE
  5
6586
  8
0
 10
193.8306434339124
 20
121.5373233503725
 30
0.0
 11
203.83064343391271
 21
121.5373233503725
 31
0.0
  0
LINE
  5
6587
  8
0
 10
193.8306434339124
 20
121.5373233503725
 30
0.0
 11
203.83064343391271
 21
121.5373233503725
 31
0.0
  0
LINE
  5
6588
  8
0
 10
193.8306434339124
 20
121.5373233503725
 30
0.0
 11
203.83064343391271
 21
121.5373233503725
 31
0.0
  0
LINE
  5
6589
  8
0
 10
203.83064343391271
 20
111.5373233503725
 30
0.0
 11
193.8306434339124
 21
111.5373233503725
 31
0.0
  0
LINE
  5
658A
  8
0
 10
193.83064343391271
 20
121.5373233503725
 30
0.0
 11
193.83064343391271
 21
111.5373233503725
 31
0.0
  0
TEXT
  5
658B
  8
0
 10
208.75889314425041
 20
115.2873233503725
 30
0.0
 40
2.5
  1
流入検出
 11
208.75889314425041
 21
116.5373233503725
 31
0.0
 73
     2
  0
LINE
  5
658C
  8
0
 10
202.61588281626109
 20
116.65877071083089
 30
0.0
 11
195.61588281626109
 21
116.65877071083089
 31
0.0
  0
LINE
  5
658D
  8
0
 10
202.61588281626109
 20
116.65877071083089
 30
0.0
 11
201.61588281626109
 21
115.65877071083079
 31
0.0
  0
LINE
  5
658E
  8
0
 10
202.61588281626109
 20
116.65877071083089
 30
0.0
 11
201.61588281626109
 21
117.65877071083089
 31
0.0
  0
LINE
  5
658F
  8
0
 10
203.83064343391271
 20
121.5373233503725
 30
0.0
 11
203.83064343391271
 21
111.5373233503725
 31
0.0
  0
VIEWPORT
  5
653A
 67
     1
  8
0
 10
63.379714567022802
 20
183.74492899459989
 30
0.0
 40
312.00160463385379
 41
240.8901277942291
 68
     1
 69
     1
1001
ACAD
1000
MVIEW
1002
{
1070
    16
1010
0.0
1020
0.0
1030
0.0
1010
0.0
1020
0.0
1030
1.0
1040
0.0
1040
240.8901277942291
1040
63.379714567022802
1040
183.74492899459989
1040
50.0
1040
0.0
1040
0.0
1070
     0
1070
   100
1070
     1
1070
     1
1070
     0
1070
     0
1070
     0
1070
     0
1040
0.0
1040
0.0
1040
0.0
1040
10.0
1040
10.0
1040
10.0
1040
10.0
1070
     0
1002
{
1002
}
1002
}
  0
ENDSEC
  0
EOF
